PrimaNota.ru - самый крупный в мире бесплатный архив песенных текстов, аккордов, табулатур и нот


Hurriganes - Bye Bye Bye - таба, видео

Регистрация Запомнить меня
Войти через:  Facebook Google Twitter Vk Yandex Mail.ru

Hurriganes - Bye Bye Bye - таба, видео

Печатать
Просмотров: 63
-------------------------------------------------------------------------------
Hurriganes- Bye Bye Bye
Album: 10/80

Intro
e|---------------------------------------------------------------------------|
B|---------------------------------------------------------------------------|
G|---------------------------------------------------------------------------|
D|---------------------------------------------------------------------------|
A|-/5-4---2-------5-4---2-------2-/5-4---2-------5-4---2-------2-------------|
E|------4---0-3-4-----4---0-3-4--------4---0-3-4-----4---0-3-4---------------|

Verse
e|---------------------------------------------------------------------------|
B|---------------------------------------------------------------------------|
G|---------------------------------------------------------------------------|
D|-2-2-4-2-2-2-4-2-2-2-4-2-2-2-4-2-------------------------------------------|
A|-0-0-0-0-0-0-0-0-0-0-0-0-0-0-0-0-2-2-4-2-2-2-4-2-2-2-4-2-2-2-4-2-----------|
E|---------------------------------0-0-0-0-0-0-0-0-0-0-0-0-0-0-0-0-----------|

e|---------------------------------------------------------------------------|
B|---------------------------------------------------------------------------|
G|---------------------------------------------------------------------------|
D|-2-2-4-2-2-2-4-2-2-2-4-2-2-2-4-2-------------------------------------------|
A|-0-0-0-0-0-0-0-0-0-0-0-0-0-0-0-0-2-2-4-2-2-2-4-2-2-2-4-2-2-2-4-2-----------|
E|---------------------------------0-0-0-0-0-0-0-0-0-0-0-0-0-0-0-0-----------|

  P.M------------------------------------------------------------->
e|---------------------------------------------------------------------------|
B|---------------------------------------------------------------------------|
G|---------------------------------------------------------------------------|
D|--7-7-7-7-7-7-7-7-7-7-7-7-7-7-7-7------------------------------------------|
A|--5-5-5-5-5-5-5-5-5-5-5-5-5-5-5-5-7-7-7-7-7-7-7-7-7-7-7-7-7-7-7-7----------|
E|----------------------------------5-5-5-5-5-5-5-5-5-5-5-5-5-5-5-5----------|

 P.M------------------------------------------------------------->
e|---------------------------------------------------------------------------|
B|---------------------------------------------------------------------------|
G|---------------------------------------------------------------------------|
D|--7-7-7-7-7-7-7-7-7-7-7-7-7-7-7-7------------------------------------------|
A|--5-5-5-5-5-5-5-5-5-5-5-5-5-5-5-5-7-7-7-7-7-7-7-7-2-2-2-2-2-2-2-2----------|
E|----------------------------------5-5-5-5-5-5-5-5-0-0-0-0-0-0-0-0----------|

e|---------------------------------------------------------------------------|
B|---------------------------------------------------------------------------|
G|---------------------------------------------------------------------------|
D|---------------------------------------------------------------------------|
A|-/5-4---2-------5-4---2-------2-/5-4---2-------5-4---2-------2-------------|
E|------4---0-3-4-----4---0-3-4--------4---0-3-4-----4---0-3-4---------------|

Verse
e|---------------------------------------------------------------------------|
B|---------------------------------------------------------------------------|
G|---------------------------------------------------------------------------|
D|-2-2-4-2-2-2-4-2-2-2-4-2-2-2-4-2-------------------------------------------|
A|-0-0-0-0-0-0-0-0-0-0-0-0-0-0-0-0-2-2-4-2-2-2-4-2-2-2-4-2-2-2-4-2-----------|
E|---------------------------------0-0-0-0-0-0-0-0-0-0-0-0-0-0-0-0-----------|
 |
e|---------------------------------------------------------------------------|
B|---------------------------------------------------------------------------|
G|-------------------------------------9---9-------9---9---------------------|
D|-------------------------------------9---9-------9---9---------------------|
A|-------------------------------------7---7-------7---7---------------------|
E|---------------------------------------------------------------------------|

e|---------------------------------------------------------------------------|
B|---------------------------------------------------------------------------|
G|---------------------------------------------------------------------------|
D|-2-2-4-2-2-2-4-2-2-2-4-2-2-2-4-2-------------------------------------------|
A|-0-0-0-0-0-0-0-0-0-0-0-0-0-0-0-0-2-2-4-2-2-2-4-2-2-2-4-2-2-2-4-2-----------|
E|---------------------------------0-0-0-0-0-0-0-0-0-0-0-0-0-0-0-0-----------|
 |
e|---------------------------------------------------------------------------|
B|---------------------------------------------------------------------------|
G|-------------------------------------9---9-------9---9---------------------|
D|-------------------------------------9---9-------9---9---------------------|
A|-------------------------------------7---7-------7---7---------------------|
E|---------------------------------------------------------------------------|

  P.M------------------------------------------------------------->
e|---------------------------------------------------------------------------|
B|---------------------------------------------------------------------------|
G|---------------------------------------------------------------------------|
D|--7-7-7-7-7-7-7-7-7-7-7-7-7-7-7-7------------------------------------------|
A|--5-5-5-5-5-5-5-5-5-5-5-5-5-5-5-5-7-7-7-7-7-7-7-7-7-7-7-7-7-7-7-7----------|
E|----------------------------------5-5-5-5-5-5-5-5-5-5-5-5-5-5-5-5----------|

 P.M------------------------------------------------------------->
e|---------------------------------------------------------------------------|
B|---------------------------------------------------------------------------|
G|---------------------------------------------------------------------------|
D|--7-7-7-7-7-7-7-7-7-7-7-7-7-7-7-7------------------------------------------|
A|--5-5-5-5-5-5-5-5-5-5-5-5-5-5-5-5-7-7-7-7-7-7-7-7-2-2-2-2-2-2-2-2----------|
E|----------------------------------5-5-5-5-5-5-5-5-0-0-0-0-0-0-0-0----------|

Chorus
e|---------------------------------------------------------------------------|
B|---------------------------------------------------------------------------|
G|---------------------------------------------------------------------------|
D|---------------------------------------------------------------------------|
A|--4-4-4-4-4-4-4-4-6-6-6-6-6-6-6-6-4-4-4-4-4-4-4-4-6-6-6-6-6-6-6-6----------|
E|--2-2-2-2-2-2-2-2-4-4-4-4-4-4-4-4-2-2-2-2-2-2-2-2-4-4-4-4-4-4-4-4----------|

e|---------------------------------------------------------------------------|
B|---------------------------------------------------------------------------|
G|---------------------------------------------------------------------------|
D|----------------------------------4-4-4-4-4-4-4-4-4-4-4-4-4-4-4-4----------|
A|--7-7-7-7-7-7-7-7-2-2-2-2-2-2-2-2-2-2-2-2-2-2-2-2-2-2-2-2-2-2-2-2----------|
E|--5-5-5-5-5-5-5-5-0-0-0-0-0-0-0-0------------------------------------------|

e|---------------------------------------------------------------------------|
B|---------------------------------------------------------------------------|
G|---------------------------------------------------------------------------|
D|---------------------------------------------------------------------------|
A|--4-4-4-4-4-4-4-4-6-6-6-6-6-6-6-6-4-4-4-4-4-4-4-4-6-6-6-6-6-6-6-6----------|
E|--2-2-2-2-2-2-2-2-4-4-4-4-4-4-4-4-2-2-2-2-2-2-2-2-4-4-4-4-4-4-4-4----------|

e|---------------------------------------------------------------------------|
B|---------------------------------------------------------------------------|
G|---------------------------------------------------------------------------|
D|----------------------------------4-4-4-4-4-4-4-4-4-4-4-4-4-4-4-4----------|
A|--7-7-7-7-7-7-7-7-2-2-2-2-2-2-2-2-2-2-2-2-2-2-2-2-2-2-2-2-2-2-2-2----------|
E|--5-5-5-5-5-5-5-5-0-0-0-0-0-0-0-0------------------------------------------|

e|---------------------------------------------------------------------------|
B|---------------------------------------------------------------------------|
G|---------------------------------------------------------------------------|
D|---------------------------------------------------------------------------|
A|-/5-4---2-------5-4---2-------2-/5-4---2-------5-4---2-------2-------------|
E|------4---0-3-4-----4---0-3-4--------4---0-3-4-----4---0-3-4---------------|

Solo
e|---------------------------------------------------------------------------|
B|--21b23r21-17-17-------17-19-19b21-17-19-17-19b21r19-17-19----17-19-17-----|
G|-----------------16/18-------------------------------------18--------------|
D|---------------------------------------------------------------------------|
A|---------------------------------------------------------------------------|
E|---------------------------------------------------------------------------|

e|--------19------------------17-16------------------------------------------|
B|--19b21hold-r19-17-19----17-------17-------17--------17----17----17-19b21--|
G|----------------------18-------------16/18-----16/18----18----18-----------|
D|---------------------------------------------------------------------------|
A|---------------------------------------------------------------------------|
E|---------------------------------------------------------------------------|

e|-----------19b21-19b21r19-17-16-17-16--------------------------------------|
B|--------17----------------------------17-------17--------------------------|
G|--16/18----------------------------------16/18-----------------------------|
D|---------------------------------------------------------------------------|
A|---------------------------------------------------------------------------|
E|---------------------------------------------------------------------------|

e|---------------------------------------------------------------------------|
B|---------------------------------------------------------------------------|
G|---------------------------------------------------------------------------|
D|---------------------------------------------------------------------------|
A|-/5-4---2-------5-4---2-------2-/5-4---2-------5-4---2-------2-------------|
E|------4---0-3-4-----4---0-3-4--------4---0-3-4-----4---0-3-4---------------|

Verse
e|---------------------------------------------------------------------------|
B|---------------------------------------------------------------------------|
G|---------------------------------------------------------------------------|
D|-2-2-4-2-2-2-4-2-2-2-4-2-2-2-4-2-------------------------------------------|
A|-0-0-0-0-0-0-0-0-0-0-0-0-0-0-0-0-2-2-4-2-2-2-4-2-2-2-4-2-2-2-4-2-----------|
E|---------------------------------0-0-0-0-0-0-0-0-0-0-0-0-0-0-0-0-----------|
 |
e|---------------------------------------------------------------------------|
B|---------------------------------------------------------------------------|
G|-------------------------------------9---9-----------9---9-----------------|
D|-------------------------------------9---9-----------9---9-----------------|
A|-------------------------------------7---7-----------7---7-----------------|
E|---------------------------------------------------------------------------|

e|---------------------------------------------------------------------------|
B|---------------------------------------------------------------------------|
G|---------------------------------------------------------------------------|
D|-2-2-4-2-2-2-4-2-2-2-4-2-2-2-4-2-------------------------------------------|
A|-0-0-0-0-0-0-0-0-0-0-0-0-0-0-0-0-2-2-4-2-2-2-4-2-2-2-4-2-2-2-4-2-----------|
E|---------------------------------0-0-0-0-0-0-0-0-0-0-0-0-0-0-0-0-----------|
 |
e|---------------------------------------------------------------------------|
B|---------------------------------------------------------------------------|
G|-------------------------------------9---9-------9---9---------------------|
D|-------------------------------------9---9-------9---9---------------------|
A|-------------------------------------7---7-------7---7---------------------|
E|---------------------------------------------------------------------------|

  P.M------------------------------------------------------------->
e|---------------------------------------------------------------------------|
B|---------------------------------------------------------------------------|
G|---------------------------------------------------------------------------|
D|--7-7-7-7-7-7-7-7-7-7-7-7-7-7-7-7------------------------------------------|
A|--5-5-5-5-5-5-5-5-5-5-5-5-5-5-5-5-7-7-7-7-7-7-7-7-7-7-7-7-7-7-7-7----------|
E|----------------------------------5-5-5-5-5-5-5-5-5-5-5-5-5-5-5-5----------|

 P.M------------------------------------------------------------->
e|---------------------------------------------------------------------------|
B|---------------------------------------------------------------------------|
G|---------------------------------------------------------------------------|
D|--7-7-7-7-7-7-7-7-7-7-7-7-7-7-7-7------------------------------------------|
A|--5-5-5-5-5-5-5-5-5-5-5-5-5-5-5-5-7-7-7-7-7-7-7-7-2-2-2-2-2-2-2-2----------|
E|----------------------------------5-5-5-5-5-5-5-5-0-0-0-0-0-0-0-0----------|

Chorus
e|---------------------------------------------------------------------------|
B|---------------------------------------------------------------------------|
G|---------------------------------------------------------------------------|
D|---------------------------------------------------------------------------|
A|--4-4-4-4-4-4-4-4-6-6-6-6-6-6-6-6-4-4-4-4-4-4-4-4-6-6-6-6-6-6-6-6----------|
E|--2-2-2-2-2-2-2-2-4-4-4-4-4-4-4-4-2-2-2-2-2-2-2-2-4-4-4-4-4-4-4-4----------|

e|---------------------------------------------------------------------------|
B|---------------------------------------------------------------------------|
G|---------------------------------------------------------------------------|
D|----------------------------------4-4-4-4-4-4-4-4-4-4-4-4-4-4-4-4----------|
A|--7-7-7-7-7-7-7-7-2-2-2-2-2-2-2-2-2-2-2-2-2-2-2-2-2-2-2-2-2-2-2-2----------|
E|--5-5-5-5-5-5-5-5-0-0-0-0-0-0-0-0------------------------------------------|

e|---------------------------------------------------------------------------|
B|---------------------------------------------------------------------------|
G|---------------------------------------------------------------------------|
D|---------------------------------------------------------------------------|
A|--4-4-4-4-4-4-4-4-6-6-6-6-6-6-6-6-4-4-4-4-4-4-4-4-6-6-6-6-6-6-6-6----------|
E|--2-2-2-2-2-2-2-2-4-4-4-4-4-4-4-4-2-2-2-2-2-2-2-2-4-4-4-4-4-4-4-4----------|

e|---------------------------------------------------------------------------|
B|---------------------------------------------------------------------------|
G|---------------------------------------------------------------------------|
D|----------------------------------4-4-4-4-4-4-4-4-4-4-4-4-4-4-4-4----------|
A|--7-7-7-7-7-7-7-7-2-2-2-2-2-2-2-2-2-2-2-2-2-2-2-2-2-2-2-2-2-2-2-2----------|
E|--5-5-5-5-5-5-5-5-0-0-0-0-0-0-0-0------------------------------------------|

e|---------------------------------------------------------------------------|
B|---------------------------------------------------------------------------|
G|---------------------------------------------------------------------------|
D|---------------------------------------------------------------------------|
A|-/5-4---2-------5-4---2-------2-/5-4---2-------5-4---2-------2-------------|
E|------4---0-3-4-----4---0-3-4--------4---0-3-4-----4---0-3-4---------------|

e|---------------------------------------------------------------------------|
B|---------------------------------------------------------------------------|
G|-----------------------------------------------/4-3-2-1--------------------|
D|---------------------------------------------------------------------------|
A|-/5-4---2-------5-4---2-------2-/5-4---2-----------------------------------|
E|------4---0-3-4-----4---0-3-4--------4---0-3-4-----------------------------|
Добавлено: 11.06.2013
Другие материалы по этой песне:
  • Аккорды и текст

Страница создана 11.06.2013
http://primanota.ru/hurriganes/bye-bye-bye-chords.htm
Привет, Гость.
Предлагаем пройти революционный курс по гитаре.
Подарок от PrimaNota.Ru, забирай!