PrimaNota.ru - самый крупный в мире бесплатный архив песенных текстов, аккордов, табулатур и нот


Hurriganes - Bop-she-bop - таба, видео

Регистрация Запомнить меня
Войти через:  Facebook Google Twitter Vk Yandex Mail.ru

Hurriganes - Bop-she-bop - таба, видео

Печатать
Просмотров: 74
-------------------------------------------------------------------------------
Hurriganes- Bop-she-bop
(Aaltonen-Häkkinen-Kallio)
Album: Tsugu Way (1977)
-------------------------------------------------------------------------------


Intro
e|---------------------------------------------------------------------------|
B|---------------------------------------------------------------------------|
G|----5------5--------5------5-------5-------5------5-----5------------------|
D|----------------3-------5----------------------3-----5---------------------|
A|-3----3-3-----------------------3-----3--3---------------------------------|
E|---------------------------------------------------------------------------|
 |                                                                           |
e|---------------------------------------------------------------------------|
B|---------------------------------------------------------------------------|
G|---------------------------------------------------------------------------|
D|--5-5-5-5-5-5-5-5---------------5-5-5-5-5-5-5-5----------------------------|
A|--3-3-3-3-3-3-3-3--3--3---5--5--3-3-3-3-3-3-3-3--3--3---5--5---------------|
E|-------------------1--1---3--3-------------------1--1---3--3---------------|

e|---------------------------------------------------------------------------|
B|---------------------------------------------------------------------------|
G|----5------5--------5------5-------5-------5------5-----5------------------|
D|----------------3-------5----------------------3-----5---------------------|
A|-3----3-3-----------------------3-----3--3---------------------------------|
E|---------------------------------------------------------------------------|
 |                                                                           |
e|---------------------------------------------------------------------------|
B|---------------------------------------------------------------------------|
G|---------------------------------------------------------------------------|
D|--5-5-5-5-5-5-5-5---------------5-5-5-5-5-5-5-5----------------------------|
A|--3-3-3-3-3-3-3-3--3--3---5--5--3-3-3-3-3-3-3-3--3--3---5--5---------------|
E|-------------------1--1---3--3-------------------1--1---3--3---------------|

Verse
e|---------------------------------------------------------------------------|
B|---------------------------------------------------------------------------|
G|---------------------------------------------------------------------------|
D|--5-5-5-5-5-5-5-5-------------------5-5-5-5-5-5-5-5------------------------|
A|--3-3-3-3-3-3-3-3--3-3-3-3-5-5-5-5--3-3-3-3-3-3-3-3--3--3--5--5------------|
E|-------------------1-1-1-1-3-3-3-3-------------------1--1--3--3------------|

e|---------------------------------------------------------------------------|
B|---------------------------------------------------------------------------|
G|---------------------------------------------------------------------------|
D|--5-5-5-5-5-5-5-5-------------------5-5-5-5-5-5-5-5------------------------|
A|--3-3-3-3-3-3-3-3--3-3-3-3-5-5-5-5--3-3-3-3-3-3-3-3--3--3--5--5------------|
E|-------------------1-1-1-1-3-3-3-3-------------------1--1--3--3------------|

e|---------------------------------------------------------------------------|
B|---------------------------------------------------------------------------|
G|---------------------------------------------------------------------------|
D|--5-5-5-5-5-5-5-5-------------------5-5-5-5-5-5-5-5------------------------|
A|--3-3-3-3-3-3-3-3--3-3-3-3-5-5-5-5--3-3-3-3-3-3-3-3--3--3--5--5------------|
E|-------------------1-1-1-1-3-3-3-3-------------------1--1--3--3------------|


e|---------------------------------------------------------------------------|
B|---------------------------------------------------------------------------|
G|---------------------------------------------------------------------------|
D|--5-5-5-5-5-5-5-5-------------------5-5-5-5-5-5-5-5------------------------|
A|--3-3-3-3-3-3-3-3--3-3-3-3-5-5-5-5--3-3-3-3-3-3-3-3--3-----5---------------|
E|-------------------1-1-1-1-3-3-3-3-------------------1-----3---------------|

Pre-Chorus
e|---------------------------------------------------------------------------|
B|---------------------------------------------------------------------------|
G|-----------5---------------------------------------------------------------|
D|---3---5---5---7---3---5---------------------------------------------------|
A|---3---5---3---7---3---5---------------------------------------------------|
E|---1---3-------5---1---3---------------------------------------------------|

Chorus
e|---------------------------------------------------------------------------|
B|---------------------------------------------------------------------------|
G|----5------5--------5------5-------5-------5------5-----5------------------|
D|----------------3-------5----------------------3-----5---------------------|
A|-3----3-3-----------------------3-----3--3---------------------------------|
E|---------------------------------------------------------------------------|
 |                                                                           |
e|---------------------------------------------------------------------------|
B|---------------------------------------------------------------------------|
G|---------------------------------------------------------------------------|
D|--5-5-5-5-5-5-5-5---------------5-5-5-5-5-5-5-5----------------------------|
A|--3-3-3-3-3-3-3-3--3--3---5--5--3-3-3-3-3-3-3-3--3--3---5--5---------------|
E|-------------------1--1---3--3-------------------1--1---3--3---------------|

Verse
e|---------------------------------------------------------------------------|
B|---------------------------------------------------------------------------|
G|---------------------------------------------------------------------------|
D|--5-5-5-5-5-5-5-5-------------------5-5-5-5-5-5-5-5------------------------|
A|--3-3-3-3-3-3-3-3--3-3-3-3-5-5-5-5--3-3-3-3-3-3-3-3--3--3--5--5------------|
E|-------------------1-1-1-1-3-3-3-3-------------------1--1--3--3------------|

e|---------------------------------------------------------------------------|
B|---------------------------------------------------------------------------|
G|---------------------------------------------------------------------------|
D|--5-5-5-5-5-5-5-5-------------------5-5-5-5-5-5-5-5------------------------|
A|--3-3-3-3-3-3-3-3--3-3-3-3-5-5-5-5--3-3-3-3-3-3-3-3--3--3--5--5------------|
E|-------------------1-1-1-1-3-3-3-3-------------------1--1--3--3------------|

e|---------------------------------------------------------------------------|
B|---------------------------------------------------------------------------|
G|---------------------------------------------------------------------------|
D|--5-5-5-5-5-5-5-5-------------------5-5-5-5-5-5-5-5------------------------|
A|--3-3-3-3-3-3-3-3--3-3-3-3-5-5-5-5--3-3-3-3-3-3-3-3--3--3--5--5------------|
E|-------------------1-1-1-1-3-3-3-3-------------------1--1--3--3------------|


e|---------------------------------------------------------------------------|
B|---------------------------------------------------------------------------|
G|---------------------------------------------------------------------------|
D|--5-5-5-5-5-5-5-5-------------------5-5-5-5-5-5-5-5------------------------|
A|--3-3-3-3-3-3-3-3--3-3-3-3-5-5-5-5--3-3-3-3-3-3-3-3--3-----5---------------|
E|-------------------1-1-1-1-3-3-3-3-------------------1-----3---------------|

Pre-Chorus
e|---------------------------------------------------------------------------|
B|---------------------------------------------------------------------------|
G|-----------5---------------------------------------------------------------|
D|---3---5---5---7---3---5---------------------------------------------------|
A|---3---5---3---7---3---5---------------------------------------------------|
E|---1---3-------5---1---3---------------------------------------------------|

Chorus
e|---------------------------------------------------------------------------|
B|---------------------------------------------------------------------------|
G|----5------5--------5------5-------5-------5------5-----5------------------|
D|----------------3-------5----------------------3-----5---------------------|
A|-3----3-3-----------------------3-----3--3---------------------------------|
E|---------------------------------------------------------------------------|
 |                                                                           |
e|---------------------------------------------------------------------------|
B|---------------------------------------------------------------------------|
G|---------------------------------------------------------------------------|
D|--5-5-5-5-5-5-5-5---------------5-5-5-5-5-5-5-5----------------------------|
A|--3-3-3-3-3-3-3-3--3--3---5--5--3-3-3-3-3-3-3-3--3--3---5--5---------------|
E|-------------------1--1---3--3-------------------1--1---3--3---------------|

Bridge
e|---------------------------------------------------------------------------|
B|---------------------------------------------------------------------------|
G|---------------------------------------------------------------------------|
D|--5-5-5-5-5-5-5-5-------------------5-5-5-5-5-5-5-5------------------------|
A|--3-3-3-3-3-3-3-3--3-3-3-3-5-5-5-5--3-3-3-3-3-3-3-3--3--3--5--5------------|
E|-------------------1-1-1-1-3-3-3-3-------------------1--1--3--3------------|

e|---------------------------------------------------------------------------|
B|---------------------------------------------------------------------------|
G|---------------------------------------------------------------------------|
D|--5-5-5-5-5-5-5-5-------------------5-5-5-5-5-5-5-5------------------------|
A|--3-3-3-3-3-3-3-3--3-3-3-3-5-5-5-5--3-3-3-3-3-3-3-3--3--3--5--5------------|
E|-------------------1-1-1-1-3-3-3-3-------------------1--1--3--3------------|

e|---------------------------------------------------------------------------|
B|---------------------------------------------------------------------------|
G|---------------------------------------------------------------------------|
D|--5-5-5-5-5-5-5-5-------------------5-5-5-5-5-5-5-5------------------------|
A|--3-3-3-3-3-3-3-3--3-3-3-3-5-5-5-5--3-3-3-3-3-3-3-3--3--3--5--5------------|
E|-------------------1-1-1-1-3-3-3-3-------------------1--1--3--3------------|


e|---------------------------------------------------------------------------|
B|---------------------------------------------------------------------------|
G|---------------------------------------------------------------------------|
D|--5-5-5-5-5-5-5-5-------------------5-5-5-5-5-5-5-5------------------------|
A|--3-3-3-3-3-3-3-3--3-3-3-3-5-5-5-5--3-3-3-3-3-3-3-3--3-----5---------------|
E|-------------------1-1-1-1-3-3-3-3-------------------1-----3---------------|

Pre-Chorus
e|---------------------------------------------------------------------------|
B|---------------------------------------------------------------------------|
G|-----------5---------------------------------------------------------------|
D|---3---5---5---7---3---5---------------------------------------------------|
A|---3---5---3---7---3---5---------------------------------------------------|
E|---1---3-------5---1---3---------------------------------------------------|

Chorus
e|---------------------------------------------------------------------------|
B|---------------------------------------------------------------------------|
G|----5------5--------5------5-------5-------5------5-----5------------------|
D|----------------3-------5----------------------3-----5---------------------|
A|-3----3-3-----------------------3-----3--3---------------------------------|
E|---------------------------------------------------------------------------|
 |                                                                           |
e|---------------------------------------------------------------------------|
B|---------------------------------------------------------------------------|
G|---------------------------------------------------------------------------|
D|--5-5-5-5-5-5-5-5---------------5-5-5-5-5-5-5-5----------------------------|
A|--3-3-3-3-3-3-3-3--3--3---5--5--3-3-3-3-3-3-3-3--3--3---5--5---------------|
E|-------------------1--1---3--3-------------------1--1---3--3---------------|

Verse
e|---------------------------------------------------------------------------|
B|---------------------------------------------------------------------------|
G|---------------------------------------------------------------------------|
D|--5-5-5-5-5-5-5-5-------------------5-5-5-5-5-5-5-5------------------------|
A|--3-3-3-3-3-3-3-3--3-3-3-3-5-5-5-5--3-3-3-3-3-3-3-3--3--3--5--5------------|
E|-------------------1-1-1-1-3-3-3-3-------------------1--1--3--3------------|

e|---------------------------------------------------------------------------|
B|---------------------------------------------------------------------------|
G|---------------------------------------------------------------------------|
D|--5-5-5-5-5-5-5-5-------------------5-5-5-5-5-5-5-5------------------------|
A|--3-3-3-3-3-3-3-3--3-3-3-3-5-5-5-5--3-3-3-3-3-3-3-3--3--3--5--5------------|
E|-------------------1-1-1-1-3-3-3-3-------------------1--1--3--3------------|

e|---------------------------------------------------------------------------|
B|---------------------------------------------------------------------------|
G|---------------------------------------------------------------------------|
D|--5-5-5-5-5-5-5-5-------------------5-5-5-5-5-5-5-5------------------------|
A|--3-3-3-3-3-3-3-3--3-3-3-3-5-5-5-5--3-3-3-3-3-3-3-3--3--3--5--5------------|
E|-------------------1-1-1-1-3-3-3-3-------------------1--1--3--3------------|


e|---------------------------------------------------------------------------|
B|---------------------------------------------------------------------------|
G|---------------------------------------------------------------------------|
D|--5-5-5-5-5-5-5-5-------------------5-5-5-5-5-5-5-5------------------------|
A|--3-3-3-3-3-3-3-3--3-3-3-3-5-5-5-5--3-3-3-3-3-3-3-3--3-----5---------------|
E|-------------------1-1-1-1-3-3-3-3-------------------1-----3---------------|

Pre-Chorus
e|---------------------------------------------------------------------------|
B|---------------------------------------------------------------------------|
G|-----------5---------------------------------------------------------------|
D|---3---5---5---7---3---5---------------------------------------------------|
A|---3---5---3---7---3---5---------------------------------------------------|
E|---1---3-------5---1---3---------------------------------------------------|

Chorus
e|---------------------------------------------------------------------------|
B|---------------------------------------------------------------------------|
G|----5------5--------5------5-------5-------5------5-----5------------------|
D|----------------3-------5----------------------3-----5---------------------|
A|-3----3-3-----------------------3-----3--3---------------------------------|
E|---------------------------------------------------------------------------|
 |                                                                           |
e|---------------------------------------------------------------------------|
B|---------------------------------------------------------------------------|
G|---------------------------------------------------------------------------|
D|--5-5-5-5-5-5-5-5---------------5-5-5-5-5-5-5-5----------------------------|
A|--3-3-3-3-3-3-3-3--3--3---5--5--3-3-3-3-3-3-3-3--3--3---5--5---------------|
E|-------------------1--1---3--3-------------------1--1---3--3---------------|

Bridge
e|---------------------------------------------------------------------------|
B|---------------------------------------------------------------------------|
G|---------------------------------------------------------------------------|
D|--5-5-5-5-5-5-5-5-------------------5-5-5-5-5-5-5-5------------------------|
A|--3-3-3-3-3-3-3-3--3-3-3-3-5-5-5-5--3-3-3-3-3-3-3-3--3--3--5--5------------|
E|-------------------1-1-1-1-3-3-3-3-------------------1--1--3--3------------|

e|---------------------------------------------------------------------------|
B|---------------------------------------------------------------------------|
G|---------------------------------------------------------------------------|
D|--5-5-5-5-5-5-5-5-------------------5-5-5-5-5-5-5-5------------------------|
A|--3-3-3-3-3-3-3-3--3-3-3-3-5-5-5-5--3-3-3-3-3-3-3-3--3--3--5--5------------|
E|-------------------1-1-1-1-3-3-3-3-------------------1--1--3--3------------|

e|---------------------------------------------------------------------------|
B|---------------------------------------------------------------------------|
G|---------------------------------------------------------------------------|
D|--5-5-5-5-5-5-5-5-------------------5-5-5-5-5-5-5-5------------------------|
A|--3-3-3-3-3-3-3-3--3-3-3-3-5-5-5-5--3-3-3-3-3-3-3-3--3--3--5--5------------|
E|-------------------1-1-1-1-3-3-3-3-------------------1--1--3--3------------|


e|---------------------------------------------------------------------------|
B|---------------------------------------------------------------------------|
G|------------------------------------5--5--5--------------------------------|
D|--5-5-5-5-5-5-5-5-------------------5--5--5--------------------------------|
A|--3-3-3-3-3-3-3-3--3-3-3-3-5-5-5-5--3--3--3--------------------------------|
E|-------------------1-1-1-1-3-3-3-3-----------------------------------------|
Добавлено: 29.11.2013
Другие материалы по этой песне:
  • Аккорды и текст

Страница создана 29.11.2013
http://primanota.ru/hurriganes/bop-she-bop-chords.htm
Привет, Гость.
Предлагаем пройти революционный курс по гитаре.
Подарок от PrimaNota.Ru, забирай!