PrimaNota.ru - самый крупный в мире бесплатный архив песенных текстов, аккордов, табулатур и нот


Huntingtons - We Don't Care - текст песни, таба, видео

Регистрация Запомнить меня
Войти через:  Facebook Google Twitter Vk Yandex Mail.ru

Huntingtons - We Don't Care - текст песни, таба, видео

Печатать
Просмотров: 75
		   "We Don't Care"
The Huntingtons
Album;High School Rock
(p) & (c) 1998 Tooth and Nail Records
Tabbed by: Chris
Email: PRHEIER@AOL.COM

just play with the CD, and it'll come to you (hopefully)

INTRO;
POWER CHORD "A"

VERSE; 2x
E----------------------------------------------------------
B----------------------------------------------------------
G-------------------7-7-7-7-9-9-9-9---------7-7-7-7-9-9-9-9
D---7-7-7-7-9-9-9-9-7-7-7-7-9-9-9-9-7-7-7-7-7-7-7-7-9-9-9-9
A---7-7-7-7-9-9-9-9-5-5-5-5-7-7-7-7-7-7-7-7-5-5-5-5-7-7-7-7
E---5-5-5-5-7-7-7-7-----------------5-5-5-5----------------

PRE CHORUS;1x
E----------------------------------
B----------------------------------
G---6-6-6-6-7-7-7-7-9-9-9-9-9-9-9-9
D---6-6-6-6-7-7-7-7-9-9-9-9-9-9-9-9
A---4-4-4-4-5-5-5-5-7-7-7-7-7-7-7-7
E----------------------------------

CHORUS;2x
E----------------------------------
B----------------------------------
G-----------7-7-7-7-9-9-9-9-7-7-7-7
D---7-7-7-7-7-7-7-7-9-9-9-9-7-7-7-7
A---7-7-7-7-5-5-5-5-7-7-7-7-5-5-5-5
E---5-5-5-5------------------------

I THINK THAT IS PRETTY MUCH IT! LET ME KNOW IF SOMETHING IS WRONG, OR IF YOU
HAVE ANYMORE TABS FROM THE HUNTINGTONS NEW ALBUM, HIGH SCHOOL ROCK...

PUNKS 4 CHRIST,
CHRIS

I HOPE THIS TURNS OUT RIGHT TAB DUDE
     
Добавлено: 04.10.2013
Другие материалы по этой песне:
  • Аккорды и текст

Страница создана 08.06.2012
http://primanota.ru/huntingtons/we-dont-care-chords.htm
Привет, Гость.
Предлагаем пройти революционный курс по гитаре.
Подарок от PrimaNota.Ru, забирай!