PrimaNota.ru - самый крупный в мире бесплатный архив песенных текстов, аккордов, табулатур и нот


Huntingtons - The Only One - текст песни, таба, видео

Регистрация Запомнить меня
Войти через:  Facebook Google Twitter Vk Yandex Mail.ru

Huntingtons - The Only One - текст песни, таба, видео

Печатать
Просмотров: 92
		   Song: The Only One
Artist: Huntingtons
Copyright 1997 Flying Tart Records
Tabbed by Casey Broadwater (A5feFan@aol.com)

This one of the slower songs on the album... I love this song
Well, here it is...

These are the chords you will be using...
highE  A   G#  F#   C#   B
-----------------------------
-----------------------------
9------------------------6---
9------7---6---4----6----9---
7------7---6---4----4----9---
-------5---4---2---------7---

Into1- Guitar 1 plays- Em Am G#- F# (2x)
While guitar 2 plays...

--------------------------------------------------------------------
--------------------------------------------------------------------
---9-99-8-999--9-99-8-999--------------------------------
--------------------------------------------------------------------
-------------------------------------11-11-11-11--9-9-9-9--
-------------------------------------------------------------------- (2x)
Verse 1
E             A                 G#              F#
You talk about me, like I'm not even there
E                            A            G#              F#
You must think I'm a loser, and i don't even care
Pre-chorus 1
                     C#           A
But when you smile and say
               E
You want me to go away
C#              G#
thats when I know that
A                   B
everything is okay
Chorus
E                                    G#
Your the only one that I'm dreamin' of
A                        B
And I think it's so rad
                    E                  G#
Cause when I look at you, I know it's love
A                 B
Of a different type whoa-oh-oh-whoa-yeah
Intro
Verse 2
E                               A           G#                F#
You make me look so stupid, in front of all my friends
E                                    A                      G#
              F#
You want to make time to love me, but the fighting never ends
Pre-chorus
Chorus
Intro2- guitar 1 plays Em Am G#- F#
guitar 2 plays this...

---------------------------------------------------------
------------------------------------12-12--10-9-7--
-9-99-8-999--9-99-8-999-----------------------
---------------------------------------------------------
---------------------------------------------------------
---------------------------------------------------------
Pre-chorus
Chorus
Pre-chorus 2
                 C#         A
And when I kneel to pray
               E
and thank God for you each day
C#              G#
thats when i know that 
A                 B
everthing is okay
Intro3- guitar 1 plays Em A - G#- F# until end of song
guitar 2 plays intro2 then plays this

E-----------------------------------------------------------------------------
B--12-12-12-12-12-12--10-10-10--9-9-9-77--10-10-10-10-10-9-7---
G-----------------------------------------------------------------------------
then this
E-----------------------------------------------------------
B---------------------------------------12-12-10-9-7--
G--8-999-8-999-8-999-8-999----------------------
then play into1 one time and play

E----------------------------------------------------------------------     
B-----------------------------------12-12-10-9-7--(2x)----------
G--9-99-8-999-9-99-8-999----------------------------9-8-9--

I know that last part is confusing but i'm pretty sure it's right.  Just
listen to the cd 
and play along, it'll help.  E-mail me with corrections or whatever at
A5feFan@aol.com
Dat's about it, have fun kids!
     
Добавлено: 28.08.2013
Другие материалы по этой песне:
  • Аккорды и текст

Страница создана 04.03.2012
http://primanota.ru/huntingtons/the-only-one-chords.htm
Привет, Гость.
Предлагаем пройти революционный курс по гитаре.
Подарок от PrimaNota.Ru, забирай!