PrimaNota.ru - самый крупный в мире бесплатный архив песенных текстов, аккордов, табулатур и нот


Hunters And Collectors - Wasted In The Sun - таба, видео

Регистрация Запомнить меня
Войти через:  Facebook Google Twitter Vk Yandex Mail.ru

Hunters And Collectors - Wasted In The Sun - таба, видео

Печатать
Просмотров: 77
HUNTERS AND COLLECTORS
WASTED IN THE SUN
Tabbed by James Greig

VERSE
Palm muted

e|------------------------------------|
B|------------------------------------|
G|------------------------------------|
D|------------------5-5-5-5-5-5-5-7---| x2
A|--5-5-5-5-5-5-5-5-3-3-3-3-3-3-3-5---|
E|--3-3-3-3-3-3-3-3-------------------|

Play the last part twice then play this
e|---------------------------------------------------|
B|---------------------------------------------------|
G|---------------------------------------------------|
D|------------------5-5-5-5-7-7-7-7-5-5-5-5-7-7-7-7--|
A|--5-5-5-5-5-5-5-5-3-3-3-3-5-5-5-5-3-3-3-3-5-5-5-5--|
E|--3-3-3-3-3-3-3-3----------------------------------|

PRE CHORUS
("long live the land down under...")

	B min		E min
e|--2--2-2--2-2-----0--0-0--0--0---|
B|--3--3-3--3-3-----0--0-0--0--0---|
G|--4--4-4--4-4-----0--0-0--0--0---|
D|--4--4-4--4-4--2--2--2-2--2--2---|
A|--2--2-2--2-2--2--2--2-2--2--2---|
E|---------------0--0--0-0--0--0---|

	D#			   F    D#  D   C
e|--------------------------------------|
B|--8-----8-----------x-10-x-8-x-7-x-5--|
G|--8-----8--8--8--8--x-10-x-8-x-7-x-5--|
D|--8---8-8---8-----8-x-10-x-8-x-7-x-5--|
A|--6-6---6------6----x-8--x-6-x-5-x-3--|
E|--------------------------------------|

CHORUS
("Killing time has come...")

	G			D
e|-3--3-3-3-3-3-3--5--5-5-5-5-5-5---|
B|-3--3-3-3-3-3-3--5--5-5-5-5-5-5---|
G|-4--4-4-4-4-4-4--6--6-6-6-6-6-6---|
D|-5--5-5-5-5-5-5--7--7-7-7-7-7-7---|
A|-5--5-5-5-5-5-5--7--7-7-7-7-7-7---|
E|-3--3-3-3-3-3-3--5--5-5-5-5-5-5---|
	C min
e|-8---8--8--8--8--8--8--8---8--8--8--8---|
B|-8---8--8--8--8--8--8--8---8--8--8--8---|
G|-8---8--8--8--8--8--8--8---8--8--8--8---|
D|-10--10-10-10-10-10-10-10--10-10-10-10--|
A|-10--10-10-10-10-10-10-10--10-10-10-10--|
E|-8---8--8--8--8--8--8--8---8--8--8--8---|

At the end of the chorus, end on the G bar 
chord and let it ring

e|--3:---|
B|--3:---|
G|--4:---|
D|--5:---|
A|--5:---|
E|--3:---|

BRIDGE

	D			F		D
e|--5-5-5-5-5-5-5-5-1-1-1-1-5-5-5-5--|
B|--5-5-5-5-5-5-5-5-1-1-1-1-5-5-5-5--|
G|--6-6-6-6-6-6-6-6-2-2-2-2-6-6-6-6--|
D|--7-7-7-7-7-7-7-7-3-3-3-3-7-7-7-7--|
A|--7-7-7-7-7-7-7-7-3-3-3-3-7-7-7-7--|
E|--5-5-5-5-5-5-5-5-1-1-1-1-5-5-5-5--|

Once again end on the G bar chord

e|--3:---|
B|--3:---|
G|--4:---|
D|--5:---|
A|--5:---|
E|--3:---|

OUTRO
("sun, the sun, the sun...")

	G			D#
e|-3-3-3-3-3-3-3-3-------------------|
B|-3-3-3-3-3-3-3-3-8-8-8-8-8-8-8-8---|
G|-4-4-4-4-4-4-4-4-8-8-8-8-8-8-8-8---|
D|-5-5-5-5-5-5-5-5-8-8-8-8-8-8-8-8---|
A|-5-5-5-5-5-5-5-5-6-6-6-6-6-6-6-6---|
E|-3-3-3-3-3-3-3-3-------------------|

	C min
e|-8--8--8--8--8--8--8--8--8--8--8--8---|
B|-8--8--8--8--8--8--8--8--8--8--8--8---|
G|-8--8--8--8--8--8--8--8--8--8--8--8---|
D|-10-10-10-10-10-10-10-10-10-10-10-10--|
A|-10-10-10-10-10-10-10-10-10-10-10-10--|
E|-8--8--8--8--8--8--8--8--8--8--8--8---|

On the studio recording, the song just 
fades out. On the version found on the 
"Under One Roof" DVD , they finish on 
the G bar chord.

LRYICS
Beauty and the beast
Have polished off their feast
They're living on the edge
They're off their heads and on my mind
They're taking off their clothes
For perfect life they chose
Into the emptiness
The gods could not care less
Long live the land down under
Foaming heads and gutless thunder
Killing time has come
For creatures on the run
Getting wasted in the sun
Each and everyone
Slightly overdone
And we are wasted in the sun
I watch the dinosaurs
They manicure their claws
Who knows where they've been
They've lived and lost
The wishful wicked years
They cry but there's no tears
The weak must feed the strong
They know where they belong
I watch the boys go down
The sinking ship is leaving town tonight
Killing time has come
For creatures on the run
Getting wasted in the sun
Each and everyone
Slightly overdone
And we are wasted in the sun
Sun
We live and die like flies
Under perfect skies
The pleasure zone is stung
The trap is almost sprung
Did you feel that you've been cheated?
Ignorance is undefeated
Killing time has come
For creatures on the run
Getting wasted in the sun
Each and everyone
Slightly overdone
And we are wasted in the sun
[repeat]
Sun sun sun
Wasted in the sun
[repeat to fade]


Any comments, suggestions or corrections?
greigfam@tac.com.au
Добавлено: 07.04.2012
Другие материалы по этой песне:
  • Аккорды и текст

Страница создана 07.04.2012
http://primanota.ru/hunters-and-collectors/wasted-in-the-sun-chords.htm
Привет, Гость.
Предлагаем пройти революционный курс по гитаре.
Подарок от PrimaNota.Ru, забирай!