PrimaNota.ru - самый крупный в мире бесплатный архив песенных текстов, аккордов, табулатур и нот


Hunter Valentine - Wait And See - таба, видео

Регистрация Запомнить меня
Войти через:  Facebook Google Twitter Vk Yandex Mail.ru

Hunter Valentine - Wait And See - таба, видео

Печатать
Просмотров: 88
----------------------------------------------------------------------------
                             Wait and See - Hunter Valentine
----------------------------------------------------------------------------
Tuning: Standard

Intro:
e|---------------------------------------------|
B|---------------------------------------------|
G|---------5-------6-------------8-------------|
D|--6------5-x8----6-x8---6------8-x4----------| x2
A|--6-x8---3-------4------6-x4---6-------------|
E|--4---------------------4--------------------|

Verse:
e|---------------------------|------------------------------------|
B|---------------------------|------------------------------------|
G|--------5-----6------------|--------5-----6------------8--------|
D|--6-----5-x8--6-x8--6------|--6-----5-x8--6-x8--6------8-x4-----|
A|--6-x8--3-----4-----6-x8---|--6-x8--3-----4-----6-x4---6--------|
E|--4-----------------4------|--4-----------------4---------------|

Bridge:
e|--------------------------------|
B|--------------------------------|
G|-------5-----6------------8-----|
D|-6-----5-x8--6-x8--6------8-x4--|
A|-6-x8--3-----4-----6-x4---6-----|
E|-4-----------------4------------|

Verse:
e|---------------------------|------------------------------------|
B|---------------------------|------------------------------------|
G|--------5-----6------------|--------5-----6------------8--------|
D|--6-----5-x8--6-x8--6------|--6-----5-x8--6-x8--6------8-x4-----|
A|--6-x8--3-----4-----6-x8---|--6-x8--3-----4-----6-x4---6--------|
E|--4-----------------4------|--4-----------------4---------------|

Chorus:
e|----------------------|
B|----------------------|
G|--------5-------------| 
D|--6-----5-x8--3-------| x2
A|--6-x8--3-----3-x16---|
E|--4-----------1-------|

Verse:
e|---------------------------|------------------------------------|
B|---------------------------|------------------------------------|
G|--------5-----6------------|--------5-----6------------8--------|
D|--6-----5-x8--6-x8--6------|--6-----5-x8--6-x8--6------8-x4-----|
A|--6-x8--3-----4-----6-x8---|--6-x8--3-----4-----6-x4---6--------|
E|--4-----------------4------|--4-----------------4---------------|

Chorus:                           
e|----------------------|     |-------------------|
B|----------------------|     |-------------------|
G|--------5-------------|     |---6*--------------|
D|--6-----5-x8--3-------| x2  |---6*--let ring----|
A|--6-x8--3-----3-x16---|     |---4*--------------|
E|--4-----------1-------|     |-------------------|
                               where I'll be...
e|--------------------------------------------------------------------|
B|--------------------------------------------------------------------|     
G|------------5------------6------------------------------------------|     
D|--6---------5------------6------------------------------------------|   
A|--6---------3------------4------------------------------------------|     
E|--4-----------------------------------------------------------------|
 Pick me up, break me down I'll be the first to tell you that I have been found
     
e|--------------------------------------------------------------------|
B|--------------------------------------------------------------------|     
G|------------5------------6------------------------------------------|     
D|--6---------5------------6------------------------------------------|   
A|--6---------3------------4------------------------------------------|     
E|--4-----------------------------------------------------------------|
 Take a drag, take a sip I'll be the first to tell you I don't need this

Chorus:                           
e|----------------------|     |-------------------|
B|----------------------|     |-------------------|
G|--------5-------------|     |---6*--------------|
D|--6-----5-x8--3-------| x2  |---6*--let ring----|
A|--6-x8--3-----3-x16---|     |---4*--------------|
E|--4-----------1-------|     |-------------------|
                               where I'll be...
Добавлено: 23.08.2013
Вам также может быть интересно:
Другие материалы по этой песне:
  • Аккорды и текст

Страница создана 23.08.2013
http://primanota.ru/hunter-valentine/wait-and-see-chords.htm
Привет, Гость.
Предлагаем пройти революционный курс по гитаре.
Подарок от PrimaNota.Ru, забирай!