PrimaNota.ru - самый крупный в мире бесплатный архив песенных текстов, аккордов, табулатур и нот


Hunter Thompson - Home - таба, видео

Регистрация Запомнить меня
Войти через:  Facebook Google Twitter Vk Yandex Mail.ru

Hunter Thompson - Home - таба, видео

Печатать
Просмотров: 135
-------------------------------------------------------------------------------
                             Home - Hunter Thompson
-------------------------------------------------------------------------------
Tabbed by: Jaden Torson

E-mail: 

Tuning:Standard

Capo: 2nd

Intro:

e|---------1------0-------1-----------1-----0-----1-----------------------------------------------------------|
B|------------------------------------------------------------------------------------------------------------|
G|-----0h2---0h2------0h2-- 0h2---0h2---0h2----0h2--0h2-----0--------------0-------------0-------------0------|
D|---3---------------------------0-----------------------2-----2---2----2-----2---2---2-----2---2---2-----2--2|
A|-----------------------------------------------------3---3-----3----0---0-----0-----------------------------|
E|----------------------------------------------------------------------------------0---0-----0---0---0----0--|
                                                                         ^x2^
Continues through first verses:                                             

e|---------1------0-------1-----------1-----0-----1-----------------------------------------------------------|
B|------------------------------------------------------------------------------------------------------------|
G|-----0h2---0h2------0h2-- 0h2---0h2---0h2----0h2--0h2-----0--------------0-------------0-------------0------|
D|---3---------------------------0-----------------------2-----2---2----2-----2---2---2-----2---2---2-----2--2|
A|-----------------------------------------------------3---3-----3----0---0-----0-----------------------------|
E|----------------------------------------------------------------------------------0---0-----0---0---0----0--|
                My eyes have now been fixed, My heart has now been set      on      love

e|---------1------0-------1-----------1-----0-----1-----------------------------------------------------------|
B|------------------------------------------------------------------------------------------------------------|
G|-----0h2---0h2------0h2-- 0h2---0h2---0h2----0h2--0h2-----0--------------0-------------0-------------0------|
D|---3---------------------------0-----------------------2-----2---2----2-----2---2---2-----2-------0-----0---|
A|-----------------------------------------------------3---3-----3----0---0-----0-----------------------------|
E|----------------------------------------------------------------------------------0---0-----0---3---3-------|
                I've turned my gaze to this, The one whom which my soul   cries    out      for

Instrumental: F      Dm     C  Am7  Em   <-2x

Verse:

F                   Dm                         C    Am7 Em
There is none I've known that holds my heart as you do now

F                    Dm                         C     Am7 Em  G
I've made for you a home, a place where love and grow and be found


Pre-Chorus:

            Am  F C Em
Draw to me Jesus

Em            Am     F   C Em
I've made my heart a home

Em          Am  F C Em
My love is Jesus

Em         Am   F   C Em
My love is You alone

            Am  F C Em
Draw to me Jesus

Em            Am     F   C Em
I've made my heart a home

Em          Am  F C Em
My love is Jesus

Em         Am   F   C Em
My love is You alone

Chorus:

F       Dm                         C Am7
It will not, it will never be enough

Am7              Em
Just to know about you Jesus and never call you my own

F   Dm                         C Am7
For my, my heart was made for love

Am7                 Em
I can't live without you Jesus

F       Dm                         C Am7
It will not, it will never be enough

Am7              Em
Just to know about you Jesus and never call you my own
  
F   Dm                        C Am7
For my, my heart was made for God

Am7                 Em
I can't live without you Jesus

Bridge:

           F       Dm                 Am7           Em
Draw to me Jesus,       I've made my heart a home

Em         F       Dm                Am7            Em
My love is Jesus,       My love is you alone

Verse:

           Am7    F C Em                 Am7     F C Em
Draw to me Jesus,       I've made my heart a home

           Am7    F C Em               Amy  F C Em
My love is Jesus,       My love is you alone



Alternate intro tab:

e|---------1------0-----1-----------1----0-----1-------------------------------------------------------------|
B|-------1------1-----1-----1-----1----1-----1-----1---------------------------------------------------------|
G|-----2------2-----2-----2-----2----2-----2------2---------0--------------0-------------0-------------------|
D|---3------------------------0--------------------------2-----2---2----2-----2---2---2-----2---2------------|
A|-----------------------------------------------------3---3-----3----0---0-----0----------------------------|
E|----------------------------------------------------------------------------------0---0-----0--------------|

************************************

| /   slide up
| \   slide down
| h   hammer-on
| p   pull-off
| ~   vibrato
| +   harmonic
| x   Mute note
| b   Bend
| pb  Pre-bend
| br  Bend release
| pbr Pre-bend release
| brb Bend release bend

************************************
Добавлено: 13.12.2015
Вам также может быть интересно:
Другие материалы по этой песне:
  • Аккорды и текст

Страница создана 13.12.2015
http://primanota.ru/hunter-thompson/home-chords.htm
Привет, Гость.
Предлагаем пройти революционный курс по гитаре.
Подарок от PrimaNota.Ru, забирай!