PrimaNota.ru - самый крупный в мире бесплатный архив песенных текстов, аккордов, табулатур и нот


Hungry Kids Of Hungary - Let You Down - аккорды и текст, видео

Регистрация Запомнить меня
Войти через:  Facebook Google Twitter Vk Yandex Mail.ru

Hungry Kids Of Hungary - Let You Down - аккорды и текст, видео

Печатать
Просмотров: 88
Let You Down
Hungry Kids Of Hungary
C                     Am
She wants to tell you everything that's going on
C                     Am
If she really means it well she can't be wrong
Em                    F
She knows that there's something amiss
Em                    G
But she won't let the words pass her lips

Chorus:
C                     Am
She wants to let you down easy
C                     Am
She wants to let you down easy
C                     Am
She wants to let you down easy
C                     Am
She wants to let you down easy

C                     Am
She wants to tell you everything that's going on
C                     Am
If she really means it well she can't be wrong
Em                    F
She knows that there's something amiss
Em                    G
But she won't let the words pass her lips
                C
Until you're gone
Am                                         C
And it goes on and on and on inside her brain
Am                                        Em
Before you know, you know, its such a shame 
    F
To end it like this
             Em                       G
But don't blame her when you were the one to insist
Chorus:
C                     Am
She wants to let you down easy
C                     Am
She wants to let you down easy
C                     Am
She wants to let you down easy
C                     Am
She wants to let you down easy

     Em     F     
And I know,

            G               Am
Because I've heard it all before
Em        F
And I know,
              G                Am
Because I've seen you walking out the door
Em  F       G 
And I notice something different 
Am             Em
every time you arrive
G
But don't ask why
Solo/Fill:
   C                    Am
e|-8---8----------------5-5-----------------------------------------|
B|-8---8----------------5-5-----------------------------------------|
G|-9---9---/12---9------5-5-----5-----------------------------------|
D|-10--10-----12--10----7-7--5-7-7-5--------------------------------| x2
A|-10--10---------------7-7-----------------------------------------|
E|-8---8----------------5-5-----------------------------------------|

e|----------0-----------1-------------3-----------------------------|
B|----0---0---0------1------------3---------------------------------|
G|--0---0----------1---1-------0----0-------------------------------|
D|------------------------------------------------------------------|
A|------------------------------------------------------------------|
E|-0-------------1----------3---------------------------------------|

Not too sure about this last bit though.
(a-cappela)
She wants to let you down easy
She wants to let you down easy
She wants to let you down easy
She wants to let you down easy

C                     Am
She wants to let you down easy
C                     Am
She wants to let you down easy

C, Am, C, Am…
Yeaaaahhh ooooh ahhh ahhh ahh ahhh
Добавлено: 30.03.2012
Другие материалы по этой песне:
  • Аккорды и текст

Страница создана 30.03.2012
http://primanota.ru/hungry-kids-of-hungary/let-you-down-chords.htm
Привет, Гость.
Предлагаем пройти революционный курс по гитаре.
Подарок от PrimaNota.Ru, забирай!