PrimaNota.ru - самый крупный в мире бесплатный архив песенных текстов, аккордов, табулатур и нот


Hundredth - Desolate - таба, видео

Регистрация Запомнить меня
Войти через:  Facebook Google Twitter Vk Yandex Mail.ru

Hundredth - Desolate - таба, видео

Печатать
Просмотров: 99
I was bored so I've decide to write my own tabs of the band Hundredth it's a easy 
song but fun to play. I am not 100 % sure about the tabs ... Tell me if some part 
are wrong . Hope you enjoy

Song: Desolate
Artist: Hundredth
Album : When will we surrender 
                               
[00:00]-[00:01]
D|---------------|
A|---------------|
F|---------------|
C|--1~-----------|
G|--1~-----------|
C|--1~-----------|

[00:02]-[00:19]
D|-----------------------------|
A|-----------------------------|
F|------10----------7----------|  repeat [4x]
C|-5--5----0------5--------5---|
G|-----------5--6-----3--5-----|
C|-----------------------------|

[00:19]-[00:24]
D|----------------------------|
A|----------------------------|
F|----------------------------|
C|---12----12-----12----12----|
G|-----10----10-----10----10--|
C|-10----10----10-----10------|

[00:24]-[00:29]
D|---------------------------|
A|---------------------------|
F|---------------------------|
C|---12----12----12----12----|
G|-10--10----10----10----10--|
C|-------10----10----10------|

[00:29]-[00:33]
D|---------------------------|
A|---------------------------|
F|---------------------------|
C|-0~------------------------|
G|-0~------------------------|
C|-0~------------------------|

[00:33]-[00:38]
D|------------------------|
A|------------------------|
F|------------------------|
C|------------------------|
G|-0-0-0-00--0000--0-0-0--|
C|-0-0-0-00--0000--0-0-0--|

[00:38]-[00:43]
D|--------------------------|
A|--------------------------|
F|--------------------------|
C|--------------------------|
G|-0-0-0-00-0-0-0-00--0000--|
C|-0-0-0-00-0-0-0-00--0000--|

[00:43]-[00:47]
D|------------------------|
A|------------------------|
F|------------------------|
C|------------------------|
G|-0-0-0-00--0000--0-0-0--|
C|-0-0-0-00--0000--0-0-0--|

[00:47]-[00:51]
D|--------------------------|
A|--------------------------|
F|--------------------------|
C|--------------------------|
G|-0-0-0-00-0-0-0-00--0000--|
C|-0-0-0-00-0-0-0-00--0000--|

[00:53]-[00:56]
D|-------------------------|
A|-------------------------|
F|-------------------------|
C|-1-1-1~------------------|
G|-1-1-1~------------------|
C|-1-1-1~------------------|

[00:56]-[01:00]
D|-------------------------|
A|-------------------------|
F|-------------------------|
C|-1~----------------------|
G|-1~----------------------|
C|-1~----------------------|
                                repeat [2x]
[1:00]-[1:06]
D|-------------------------|
A|-------------------------|
F|------------------10-----|
C|------7-8-7---7----------|
G|-5-6-8-----8---8-6-------|
C|-------------------------|

[1:15]-[1:19]
D|-----------------------|
A|-----------------------|
F|-----------------------|
C|---------------5-5-5---|
G|-0-0---00---00-3-3-3---|
C|-0-0---00---00---------|
                               repeat [2x]
[1:20]-[1:25]  
D|---------------------|
A|---------------------|
F|---------------------|
C|------------------5--|
G|-0-0---00---00-3-5---|
C|-0-0---00---00-------|

[1:35]-[1:39]
D|---------------|
A|---------------|
F|---------------|
C|-11111111------|  repeat [4x]
G|-11111111------|
C|-11111111------|

[1:39]-[1:42]
D|---------------|
A|---------------|
F|---------------|
C|-55555555------| repeat [4x]       repeat all this [2x]
G|-55555555------|
C|-55555555------|

[1:42]-[1:43]
D|---------------|
A|---------------|
F|---------------|
C|-33333333------| repeat [1x]
G|-33333333------|
C|-33333333------|

[1:53]-[1:54]
D|---------------|
A|---------------|
F|---------------|
C|-0-0-00~-------|
G|-0-0-00~-------|
C|-0-0-00~-------|

[1:55]-[2:09]
D|------------------------|
A|------------------------|
F|------------------------|
C|-0-0--00-00-0-0---0-0-0-|   repeat [2x]
G|-0-0--00-00-0-0---0-0-0-|
C|-0-0--00-00-0-0---0-0-0-|

[2:10]-[2:24]
D|-----------------------------|
A|-----------------------------|
F|------10----------7----------|  repeat [3x]
C|-5--5----0------5--------5---|
G|-----------5--6-----3--5-----|
C|-----------------------------|

[2:24]-[2:28]
D|----------------------------|
A|----------------------------|
F|------10----------7---------|
C|-5--5----0------5---55-3-1~-|
G|-----------5--6-----55-3-1~-|
C|--------------------55-3-1~-|

[2:32]-[2:36]
D|-------------------------|
A|-------------------------|
F|-------------------------|
C|-1~----------------------|
G|-1~----------------------|
C|-1~----------------------|

[2:37]-[2:41]
D|---------------------|
A|---------------------|
F|---------10----------|   
C|-5---5-8-------------|
G|-5-------------------|
C|-5-------------------|

[2:42]-[2:47]
D|---------------------|
A|---------------------|
F|--------10-----10----|
C|-5---5-8-----7-------|
G|-5-------------------|
C|-5-------------------|

[2:47]-[2:55]
D|-------------------------|
A|-------------------------|
F|-------------------------|   repeat [2x]
C|-1~----------------------|
G|-1~----------------------|
C|-1~----------------------|

[2:56]-[3:00]
D|---------------------|
A|---------------------|
F|---------10----------|   
C|-5---5-8-------------|
G|-5-------------------|
C|-5-------------------|

[3:00]-[3:05]
D|---------------------|
A|---------------------|
F|--------10-----10----|
C|-5---5-8-----7-------|
G|-5-------------------|
C|-5-------------------|

[3:06]-[3:42]
D|-----------------------------|
A|-----------------------------|
F|------10----------7----------|  repeat [8x]
C|-5--5----0------5--------5---|
G|-----------5--6-----3--5-----|
C|-----------------------------|

the rest of the song finish with the same drum beat as the begining

I hope it's help !


http://www.myspace.com/hundredth
Добавлено: 29.07.2012
Другие материалы по этой песне:

Страница создана 11.05.2012
http://primanota.ru/hundredth/desolate-chords.htm
Привет, Гость.
Предлагаем пройти революционный курс по гитаре.
Подарок от PrimaNota.Ru, забирай!