PrimaNota.ru - самый крупный в мире бесплатный архив песенных текстов, аккордов, табулатур и нот


Hundred Reasons - The Chance - бас-таба, видео

Регистрация Запомнить меня
Войти через:  Facebook Google Twitter Vk Yandex Mail.ru

Hundred Reasons - The Chance - бас-таба, видео

Печатать
Просмотров: 81
I hope this is sonuds good for you

1st Part
G|--------------------------------------------------------|
D|---------3-3-3-3-3-3-3-3--------------------------------|
A|-3-3-3-3-3-3-3-3--------5-5-5-5-5-5-5-5-3-3-3-3-3-3-3-3-|
E|--------------------------------------------------------|

2nd Part
G|---------------------------------------------------------------|
D|----------------3-3-3-3-3-3-3-3-3-3-3-3-3-3-3-3----------------|
A|-3-3-3-3-3-3-3-3-------------------------------3-3-3-3-3-3-3-3-|
E|---------------------------------------------------------------|

Chorus
G|--------------------------------------------------------------------------|
D|-----------------3-3-3-3-3-3-3-3-3-3-3-3-3-3-3-3--------------------------|
A|-3-3-3-3-3-3-3-3---------------------------------3-3-3-3-3-3-3-3-3-3-3-3--|
E|--------------------------------------------------------------------------|

G|----------------------------------------------------------|
D|--------3-3-3-3-3-3-3-3-5-5-5-5-5-5-5-5-------------------|
A|-3-3-3-3--------------------------------3-3-3-3-3-3-3-3-3-|
E|----------------------------------------------------------|

Thanks,
Zak
Добавлено: 01.03.2012
Другие материалы по этой песне:
  • Аккорды и текст

Страница создана 01.03.2012
http://primanota.ru/hundred-reasons/the-chance-chords.htm
Привет, Гость.
Предлагаем пройти революционный курс по гитаре.
Подарок от PrimaNota.Ru, забирай!