PrimaNota.ru - самый крупный в мире бесплатный архив песенных текстов, аккордов, табулатур и нот


Hundred Reasons - Live Fast Die Ugly - таба, видео

Регистрация Запомнить меня
Войти через:  Facebook Google Twitter Vk Yandex Mail.ru

Hundred Reasons - Live Fast Die Ugly - таба, видео

Печатать
Просмотров: 105
Hundred reasons - live fast die ugly
album - kill your own
tuning - Drop D

I tried finding this song, but theres no tabs so i tried it myself.
Its my first tab on here so any advice is good right??

Riff

|-----------------------------------------------|
|-----------------------------------------------|
|-----------------------------------------------|
|-------2-3------------2-3-----------2-3------3-|
|---2-3-----2-3----2-3-----2-3---2-3-----2-3--3-|
|-3--------------3-------------3--------------3-|

verse

|------------------------------------------------------------------|
|------------------------------------------------------------------|
|--------444--------444--101010101010-131313-101010101010-131313---|
|-333333-444-333333-444--x-x-x-x-x-x--x-x-x--x-x-x-x-x-x--x-x-x----|
|-333333-222-333333-222--8-8-8-8-8-8--111111-8-8-8-8-8-8--111111---|
|-333333-----333333------------------------------------------------|

chorus

|------------------------------------|
|------------------------------------|
|------------------------------------| x2
|-333333-555555-101010101010-888888--|
|-333333-555555-101010101010-888888--|
|-333333-555555-101010101010-888888--|


|--------------------------------|
|--------------------------------|
|--------666666-555555-333333----|
|-333333-666666-555555-333333----|
|-333333-444444-333333-111111----|
|-333333-------------------------|

Bridge

I use a WAH fx on this

|--------------------------------|
|--------------------------------|
|--------------------------------|
|-0---12-------------------------|
|-0-3/12-------------------------|  x
|-0------------------------------|

outro

|--------------------------------|
|--------------------------------|
|--------------------------------|
|-0-8-3-8-0----------------------|
|-0-8-3-8-0----------------------|
|-0-8-3-8-0----------------------|
Добавлено: 03.06.2012
Другие материалы по этой песне:
  • Аккорды и текст

Страница создана 03.06.2012
http://primanota.ru/hundred-reasons/live-fast-die-ugly-chords.htm
Привет, Гость.
Предлагаем пройти революционный курс по гитаре.
Подарок от PrimaNota.Ru, забирай!