PrimaNota.ru - самый крупный в мире бесплатный архив песенных текстов, аккордов, табулатур и нот


Hundred Reasons - Kill Your Own - таба, видео

Регистрация Запомнить меня
Войти через:  Facebook Google Twitter Vk Yandex Mail.ru

Hundred Reasons - Kill Your Own - таба, видео

Печатать
Просмотров: 115
-------------------------------------------------------------------------------
                             Kill Your Own - Hundred Reasons
-------------------------------------------------------------------------------
Tabbed by: Aron S
Email: goodsum@hotmail.com

Tuning: Drop D (DADGBe)


Intro:

(guitar 1)
e|--------------13-----------|-----------13-----------|
B|--15-13-15-13----15-13-15--|--15-15-13----15-13-15--|
G|---------------------------|------------------------|
D|----------(x1)-------------|----------(x5)----------| play this once
A|---------------------------|------------------------|
D|---------------------------|------------------------|

e|--------------------13-----------|-----------13-----------|
B|--------15-------15----15-13-15--|--15-15-13----15-13-15--|
G|--12-12----12-12-----------------|------------------------| repeat this
D|---------------------------------|------------------------|
A|---------------------------------|------------------------|
D|---------------------------------|------------------------|


(guitar 2)
e|---------------------------------------|
B|---------------------------------------|
G|-----7---------7---------7-------------|
D|--0--7--0--55-07--0--33-07--0-2-3-2-0--|
A|--0--5--0--55-05--0--33-05--0-2-3-2-0--|
D|--0-----0--55-0---0--33-0---0-2-3-2-0--|


Verse:

e|--------------------------|
B|-----5-3p0---5-3p0---6----|
G|-----5-3p0---5-3p0-----5--|
D|--------------------------|
A|--0-------0-------0-------|
D|--0-------0-------0-------|


Chorus:

(guitar 1)
e|---------------------|------------------------|
B|--15-13-15-13----15--|--15-15-13-15-13----15--| repeat 2nd part
G|--------------12-----|-----------------12-----| until pick slide
D|---------------------|------------------------|
A|-------(x1)----------|---------(x7)-----------|
D|---------------------|------------------------|

e|--------------13-----------|-----------13-----------|
B|--15-13-15-13----15-13-15--|--15-15-13----15-13-15--|
G|---------------------------|------------------------|
D|----------(x1)-------------|----------(x5)----------|
A|---------------------------|------------------------|
D|---------------------------|------------------------|


(guitar 2)
e|----------------------------------------|
B|----------------------------------------|
G|----------------------------------------|
D|--8--------10--------12---------10-8-0--| x2
A|--8-(x8)---10-(x8)---12-(x12)---10-8-0--|
D|--8--------10--------12---------10-8-0--|

e|--------------------------------------------------|
B|--------------------------------------------------|
G|--------------------------------------------------|
D|--8--------10--------0-0-12-0-8-10-0-0-12-0-8-10--|
A|--8-(x8)---10-(x8)---0-0-12-0-8-10-0-0-12-0-8-10--|
D|--8--------10--------0-0-12-0-8-10-0-0-12-0-8-10--|

e|--------------------|
B|--------------------|
G|--------------------|
D|--8--------10-------|
A|--8-(x8)---10-(x8)--|
D|--8--------10-------|


Post-Chorus:

(guitar 1)
e|--------------------------------------------------------|
B|--------15-----------15-----------15-------15-------15--|
G|--12-12----12-12-12-----12-12-12-----12-12----12-12-----|
D|--------------------------------------------------------|
A|--------------------------------------------------------|
D|--------------------------------------------------------|


(guitar 2)
e|---------------------------------------|
B|---------------------------------------|
G|-----7---------7---------7-------------|
D|--0--7--0--55-07--0--33-07--0-2-3-2-0--|
A|--0--5--0--55-05--0--33-05--0-2-3-2-0--|
D|--0-----0--55-0---0--33-0---0-2-3-2-0--|


Bridge:

e|-------------------------------------|
B|-------------------------------------|
G|-------------------------------------|
D|--00--0--0--0--0-023200--0--0--0--0--|
A|--00--0--0--0--0-023200--0--0--0--0--|
D|--00--0--0--0--0-023200--0--0--0--0--|


Pre-Outro

e|--------------------|
B|--------------------|
G|--------------------|
D|--8--------10-------| repeat a few times
A|--8-(x8)---10-(x8)--|
D|--8--------10-------|

| /  slide up
| \  slide down
| h  hammer-on
| p  pull-off
| ~  vibrato
| +  harmonic
| x  Mute note
===============================================================================
Добавлено: 04.07.2012
Другие материалы по этой песне:

Страница создана 24.05.2012
http://primanota.ru/hundred-reasons/kill-your-own-chords.htm
Привет, Гость.
Предлагаем пройти революционный курс по гитаре.
Подарок от PrimaNota.Ru, забирай!