PrimaNota.ru - самый крупный в мире бесплатный архив песенных текстов, аккордов, табулатур и нот


Hundred Reasons - Ill Never Know - таба, видео

Регистрация Запомнить меня
Войти через:  Facebook Google Twitter Vk Yandex Mail.ru

Hundred Reasons - Ill Never Know - таба, видео

Печатать
Просмотров: 72
Hundred Reasons - I'll Never Know
Tuning: Drop D


Intro

Lead

E|---------------------------------------------------------------|
B|---------------------------------------------------------------|
G|-12--12-12-12-12-12--10--10-10-10-10-10--10--10-10-10-10-10----|
D|--x---x--x--x--x--x---x---x--x--x--x--x---x---x--x--x--x--x----|
A|-10--10-10-10-10-10---8---8--8--8--8--8---8---8--8--8--8--8----|     
d|---------------------------------------------------------------|
E|-----------------------|
B|-----------------------|
G|-10--10-10-10-10-10----|
D|--x---x--x--x--x--x----|
A|--8---8--8--8--8--8----|             
d|-----------------------|

Rhythm

E|--------------------------------------------------------------|
B|--------------------------------------------------------------|
G|--------------------------------------------------------------|
D|-5--5-5-5-5-5--5--5-5-5-5-5--1--1-1-1-1-1--3--3-3-3-3-3-------|
A|-5--5-5-5-5-5--5--5-5-5-5-5--1--1-1-1-1-1--3--3-3-3-3-3-------|
d|-5--5-5-5-5-5--5--5-5-5-5-5--1--1-1-1-1-1--3--3-3-3-3-3-------|

Verse

E|--------------------------------------------------------------|
B|--------------------------------------------------------------|
G|-12--12-12-12-12-12--12--12-12-12-12-12---10--10-10-10-10-10--|
D|--x---x--x--x--x--x---x---x--x--x--x--x---12--12-12-12-12-12--|
A|-10--10-10-10-10-10--10--10-10-10-10-10-----------------------|
d|--------------------------------------------------------------|

E|----------------------|
B|----------------------| Then Play:  E|------------------------|
G|-10--10-10-10-10-10---|             B|------------------------|
D|-12--12-12-12-12-12---|             G|------------------------|
A|----------------------|             D|------------------------|
d|----------------------|             A|------------------------|
                                      d|-3~-1-3-1-3-1-----------|
                                       Play with slight bending


Part 2 of Verse has guitar playing this:

E|---------------------------------------------------------------|
B|---------------------------------------------------------------|
G|-10-10-12-12-x-10-10-10-12-12----------------------------------|
D|-12-12-12-12-x-12-12-12-12-12----------------------------------|
A|---------------------------------------------------------------|
d|---------------------------------------------------------------|

Lead up to chorus with this:

E|-----------------------------|
B|-----------------------------|
G|-10-10-10-10-10-10-10-10-----|
D|--x--x--x--x--x--x--x--x-----|
A|--8--8--8--8--8--8--8--8-----|
d|-----------------------------|

Chorus


Lead

E|---------------------------------------------------------------------|
B|---------------------------------------------------------------------|
G|---------------------------------------------------------------------|
D|-8--8-7-7-8-8-7-7-8-8-7-7-7-7-7--8--8-7-7-8-8---10-10-10-10-10-10-10-|
A|---------------------------------------------------------------------|
d|---------------------------------------------------------------------|

Rhythm

E|---------------------------------------------------------------------|
B|---------------------------------------------------------------------|
G|---------------------------------------------------------------------|
D|--1--1-1-1-1-1-1-1-1-1-1-1-1-1-1--5--5-5-5-5-5---3--3-3-3-3-3-3-3----|
A|--1--1-1-1-1-1-1-1-1-1-1-1-1-1-1--5--5-5-5-5-5---3--3-3-3-3-3-3-3----|
d|--1--1-1-1-1-1-1-1-1-1-1-1-1-1-1--5--5-5-5-5-5---3--3-3-3-3-3-3-3----|

End Part of Chorus (Both Guitars)

E|--------------------------------------------|
B|--------------------------------------------|
G|--------------------------------------------|
D|-1--1-1-1-1-1--0--0-0-0-0-0--3--3-3-3-3-3---|
A|-1--1-1-1-1-1--0--0-0-0-0-0--3--3-3-3-3-3---|
d|-1--1-1-1-1-1--0--0-0-0-0-0--3--3-3-3-3-3---|

Verse 2

Rhythm Guitar Plays same as First Verse

Lead Guitar comes half way through second verse with this:

E|-----------------------------------------------------------------|
B|-----------------------------------------------------------------|
G|-12--12-12-12-12-12-12-12-12-12-12-12-12-12-12-12----------------|
D|--x---x--x--x--x--x--x--x--x--x--x--x--x--x--x--x----------------|
A|-10--10-10-10-10-10-10-10-10-10-10-10-10-10-10-10----------------|
d|-----------------------------------------------------------------|

E|-----------------------------------------------------------------|
B|-----------------------------------------------------------------|
G|-15--15-15-15-15-15-15--14--14-14-14-14-14-14-14-14--------------|
D|--x---x--x--x--x--x--x---x---x--x--x--x--x--x--x--x--------------|
A|-13--13-13-13-13-13-13--12--12-12-12-12-12-12-12-12--------------|
d|-----------------------------------------------------------------|

E|-----------------------------------------------------------------|
B|-----------------------------------------------------------------|
G|-12--12-12-12-12-12-12-12-12-12-12-12-12-12-12-12----------------|
D|--x---x--x--x--x--x--x--x--x--x--x--x--x--x--x--x----------------|
A|-10--10-10-10-10-10-10-10-10-10-10-10-10-10-10-10----------------|
d|-----------------------------------------------------------------|

E|--------------------------------------|
B|--------------------------------------|
G|-15--15-15-15-15-15-15--17/-----------|
D|--x---x--x--x--x--x--x---x/-----------|
A|-13--13-13-13-13-13-13--15/-----------|
d|--------------------------------------|

Bridge

Guitar 1

E|--------------------------------------------------------------------|
B|--------------------------------------------------------------------|
G|-10-10-10-------10-10-9-9-9----------9-9-7-7-7-------7-7-5-5-5------|
D|----------7-7-7-----------------------------------------------------|
A|----------------------------10-10-10-----------8-8-8-----------7-7-7|
d|--------------------------------------------------------------------|

E|--------------------------------------------------------------------|
B|--------------------------------------------------------------------|
G|-5-5-3-3-3-------3-3-2-2-2-------2-2-0-0-0-------0------------------|
D|---------------------------------------------------3-2--------------|
A|-----------5-5-5-----------3-3-3-----------1-1-1-------3/5----------|
d|--------------------------------------------------------------------|

Guitar 2 (Halfway through the bridge)

E|--------------------------------------------------------------------|
B|--------------------------------------------------------------------|
G|-15-15-15-12-12-12-15-15-14-14-14----------14-14-12-12-12-----------|
D|----------------------------------15-15-15---------------14-14-14---|
A|--------------------------------------------------------------------|
d|--------------------------------------------------------------------|

E|--------------------------------------------------------------------|
B|--------------------------------------------------------------------|
G|-12-12-10-10-10----------10-10-9-9-9----------9-9-7-7-7-------7-7---|
D|----------------12-12-12-------------10-10-10-----------8-8-8-------|
A|--------------------------------------------------------------------|
d|--------------------------------------------------------------------|

E|--------------------------------------------------------------------|
B|--------------------------------------------------------------------|
G|-5-5-5---------0----------------------------------------------------|
D|-------7-7-7------3-2-----------------------------------------------|
A|----------------------3/5-------------------------------------------|
d|--------------------------------------------------------------------|



Solo

E|--------------------------------------------------------------------|
B|--------------------------------------------------------------------|
G|-14-14--15-15-14-14-14-14-15-15--14-14--15-15-14-14-14-14-15-15-----|
D|-15-15--15-15-15-15-15-15-15-15--15-15--15-15-15-15-15-15-15-15-----|
A|--------------------------------------------------------------------|
d|--------------------------------------------------------------------|

E|--------------------------------------------------------------------|
B|--------------------------------------------------------------------|
G|-14-14--15-15-14-14-14-14-15-15--14-14--15-15-15-15b----------------|
D|-15-15--15-15-15-15-15-15-15-15--15-15--15-15-15--------------------|
A|--------------------------------------------------------------------|
d|--------------------------------------------------------------------|
Добавлено: 24.11.2013
Другие материалы по этой песне:
  • Аккорды и текст

Страница создана 24.11.2013
http://primanota.ru/hundred-reasons/ill-never-know-chords.htm
Привет, Гость.
Предлагаем пройти революционный курс по гитаре.
Подарок от PrimaNota.Ru, забирай!