PrimaNota.ru - самый крупный в мире бесплатный архив песенных текстов, аккордов, табулатур и нот


Humble Pie - Sad Bag Of Shakey Jake - бас-таба, видео

Регистрация Запомнить меня
Войти через:  Facebook Google Twitter Vk Yandex Mail.ru

Humble Pie - Sad Bag Of Shakey Jake - бас-таба, видео

Печатать
Просмотров: 53
-------------------------------------------------------------------------------
                             Humble Pie - Sad bag of Shakey Jake
-------------------------------------------------------------------------------
Tabbed by: 
E-mail: Emek

Tuning: E A D G B E

Intro :

Let guitar play riff then improvise a lick in Dm

Verse + Chorus just improvise in this riff

D7/Dm - G - C - D
G|--3s5--5-----3s5--5-----3s5------------------------------------------------|
D|---------------------------------------------------------------------------|
A|----------5----------5-------5--3-----5------------------------------------|
E|-----------------------------------3---------------------------------------|

Break G - D - C - A7
I keep on the run now |  I travel by night  |  I don't need anyone |
G|---------------------------------------------------------------------------|
D|---------------------------------------------------------------------------|
A|-------------5--------3------------5------------------------5--------------|
E|--3-----------------------------------------3------------------------------|

But some one, some day somewhere's going to see me right
G|---------------------------------------------------------------------------|
D|---------------------------------------------------------------------------|
A|--3-------------------------------------------------------------------------|
E|--------------------------------------------5-------------------------------|

Song ends in a jamsession in D7 / Dm


| /  slide up
| \  slide down
| h  hammer-on
| p  pull-off
| ~  vibrato
| +  harmonic
| x  Mute note
===============================================================================
Добавлено: 22.05.2016
Другие материалы по этой песне:
  • Аккорды и текст

Страница создана 22.05.2016
http://primanota.ru/humble-pie/sad-bag-of-shakey-jake-chords.htm
Привет, Гость.
Предлагаем пройти революционный курс по гитаре.
Подарок от PrimaNota.Ru, забирай!