PrimaNota.ru - самый крупный в мире бесплатный архив песенных текстов, аккордов, табулатур и нот


The Humble Brothers - Upside - таба, видео

Регистрация Запомнить меня
Войти через:  Facebook Google Twitter Vk Yandex Mail.ru

The Humble Brothers - Upside - таба, видео

Печатать
Просмотров: 78
E Standard Tuning (EADGBE)


Intro
e-------------------------|
B-------------------------|
G-------------------------|
D-8-8-8--6-6-6--4-4-4-4-4-|  X2
A-8-8-8--6-6-6--4-4-4-4-4-|
E-6-6-6--4-4-4--2-2-2-2-2-|



Pre Chorus
e------------------------------|
B------------------------------|
G------------------------------|
D-4--x-4--x-4---x-4--x-4--x-4--|
A-4--x-4--x-4---x-4--x-4--x-4--|
E-2--x-2--x-2---x-2--x-2--x-2--|



Chorus
e-------------------------|
B-------------------------|
G-------------------------|
D-8-8-8--6-6-6--4-4-4-4-4-|  X4
A-8-8-8--6-6-6--4-4-4-4-4-|
E-6-6-6--4-4-4--2-2-2-2-2-|



Pre Chorus
e------------------------------|
B------------------------------|
G------------------------------|
D-4--x-4--x-4---x-4--x-4--x-4--|
A-4--x-4--x-4---x-4--x-4--x-4--|
E-2--x-2--x-2---x-2--x-2--x-2--|



Chorus
e-------------------------|
B-------------------------|
G-------------------------|
D-8-8-8--6-6-6--4-4-4-4-4-|  X8
A-8-8-8--6-6-6--4-4-4-4-4-|
E-6-6-6--4-4-4--2-2-2-2-2-|



Bridge
e-------------------------|
B-------------------------|
G-------------------------|
D-8-8-8--6-6-6--4-4-4-4-4-|  X4
A-8-8-8--6-6-6--4-4-4-4-4-|
E-6-6-6--4-4-4--2-2-2-2-2-|



Chorus
e-------------------------|
B-------------------------|
G-------------------------|
D-8-8-8--6-6-6--4-4-4-4-4-|  X4
A-8-8-8--6-6-6--4-4-4-4-4-|
E-6-6-6--4-4-4--2-2-2-2-2-|
Добавлено: 04.12.2015
Другие материалы по этой песне:
  • Аккорды и текст

Страница создана 04.12.2015
http://primanota.ru/humble-brothers/upside-chords.htm
Привет, Гость.
Предлагаем пройти революционный курс по гитаре.
Подарок от PrimaNota.Ru, забирай!