PrimaNota.ru - самый крупный в мире бесплатный архив песенных текстов, аккордов, табулатур и нот


Humanzi - Out On A Wire - таба, бас-таба, видео

Регистрация Запомнить меня
Войти через:  Facebook Google Twitter Vk Yandex Mail.ru

Humanzi - Out On A Wire - таба, бас-таба, видео

Печатать
Просмотров: 108
This is an almost complete version of Out on a Wire.

Bass:
|----------------------------------------------------------------------|
|----------------------------------------------------------------------|
|--7-7-6----------------------7-7-6-6----------------------------------|
|---------7-7-7-7-7-7-7-7------------7-7-7-7-7-7-7-7--9-9-9------------|

|-----------------------------------------------------------------------|
|-----------------------------------------------------------------------|
|-----------------------------------------------------------------------|
|--4-4-4-4-4-4-4--9-9-9--4-4-4-4-4-4-4-4--------------------------------|
They're the same all the way through I think.

Main riff:
e |-------------------------------------------------------------------------------------|
B|--------------------------------------------------------------------------------------|
G|-- ----1-2-1------1-4-2-1-----1-2-1------1-4-2-1-----1-2-1------1-4-2-1---------------|
D|- --2----------2------------ -2-----------2------------2------------2-----------------|
A|--------------------------------------------------------------------------------------|
E|--------------------------------------------------------------------------------------|

e |-------------------------------------------------------------------------------------|
B|--------------------------------------------------------------------------------------|
G|-- ----1-2-1------1-2-1---------------------------------------------------------------|
D|- --2----------2-----------4-2- ------------------------------------------------------|
A|--------------------------------------------------------------------------------------|
E|--------------------------------------------------------------------------------------|

Twenty? lives out on a wire,
So she got a lot of faces places that he can call his own,
So she couldn't get any higher,
He couldn't get any higher,
No he's all alone

Verse:
e |-------------------------------------------------------------------------------------|
B|--------------------------------------------------------------------------------------|
G|------9----------9----11b/6----------6------------------------------------------------|
D|--------------------------------------------------------------------------------------|
A|--------------------------------------------------------------------------------------|
E|--------------------------------------------------------------------------------------|

Well you might walk tall,
You might walk strong,
You'll never get to heaven with the sing of a song,
Because you're wonderful,
You're wonderful

Well you might walk tall,
You might walk strong,
You'll never get to heaven with the sing of a song,
Because you're wonderful,
You're wonderful

e |--------------0------------------------|
B|--------------0-------------------------|
G|--------------2-------------------------|
D|------2---------------------------------|
A|----------------------------------------|
E|----------------------------------------|

Repeat the main riff all the way through the chorus

I said go go.
I said go go.
I never never wanna see your face, again

Verse:
Somebody's gotta tell ya,
Somebody's gotta tell ya,
You're not doing fine.

So she couldn't get any higher,
He couldn't get any higher,
So you're all alone

Guitar 1:
e |---12-----12--12-12---12--12-12-12----12-----12--12-12---12--12-12-12--|
B|---12-----12--12-12---12--12-12-12----12-----12--12-12---12--12-12-12---|
G|------------------------------------------------------------------------|
D|------------------------------------------------------------------------|
A|------------------------------------------------------------------------|
E|------------------------------------------------------------------------|

e |---9-----9--9-9---9--9-9-9----9-----9--9-9---9--9-9-9--|
B|---9-----9--9-9---9--9-9-9----9-----9--9-9---9--9-9-9---|
G|--------------------------------------------------------|  Repeat throughout
D|--------------------------------------------------------|   verse
A|--------------------------------------------------------|
E|--------------------------------------------------------|

Guitar 2: While guitar one plays:
e |-------------------------------------------------------------------------------------|
B|--------9--------------------------9--------------------------------------------------|
G|--------9---(Gently)-------------9-----(Gently)---------------------------------------|
D|--------7--------------------------7--------------------------------------------------|
A|--------------------------------------------------------------------------------------|
E|--------------------------------------------------------------------------------------|

 Then:
e |-------------------------------------------------------------------------------------|
B|--------------------------------------------------------------------------------------|
G|------9----------9----11b/6----------6------------------------------------------------|
D|--------------------------------------------------------------------------------------|
A|--------------------------------------------------------------------------------------|
E|--------------------------------------------------------------------------------------|

Well you might walk tall,
You might walk strong,
You'll never get to heaven with the sing of a song,

e |--------------0------------------------|
B|--------------0-------------------------|
G|--------------2-------------------------|
D|------2---------------------------------|
A|----------------------------------------|
E|----------------------------------------|

Because you're wonderful,
You're wonderful

e |--------------0------------------------|
B|--------------0-------------------------|
G|--------------2-------------------------|
D|------2---------------------------------|
A|----------------------------------------|
E|----------------------------------------|

Repeat chorus.

At end of chorus:
e |-------------------------------------------------------------------------------------|
B|--------------------------------------------------------------------------------------|
G|--------1-2-1-----1-2-4-1---3h5—6h8-6-10----------------------------------------------|
D|-----2---------2----------------------------------------------------------------------|
A|--------------------------------------------------------------------------------------|
E|--------------------------------------------------------------------------------------|

I can't figure out exactly which chords to use for the ‘solo' but this is as close as I can get

e |----------------------------------------------------------------|
B|-----------------------------------------------------------------|
G|--10/12-10/12--10-----------7/9--7/9--7--------------------------|
D|--10/12-10/12--10-----x4---7/9--7/9--7----x4---------------------|      Repeat
A|---8/10---8/10---8-----------5/7--5/7--5-------------------------|
E|-----------------------------------------------------------------|

The end chorus is basically a mash up of everything else played in the song

Tabbed by Petie Barry
Corrections, praise etc. @  petiebarry@hotmail.com
Добавлено: 11.07.2012
Другие материалы по этой песне:
  • Аккорды и текст

Страница создана 22.04.2012
http://primanota.ru/humanzi/out-on-a-wire-chords.htm
Привет, Гость.
Предлагаем пройти революционный курс по гитаре.
Подарок от PrimaNota.Ru, забирай!