PrimaNota.ru - самый крупный в мире бесплатный архив песенных текстов, аккордов, табулатур и нот


Human League - The Sound Of The Crowd - текст песни, бас-таба, видео

Регистрация Запомнить меня
Войти через:  Facebook Google Twitter Vk Yandex Mail.ru

Human League - The Sound Of The Crowd - текст песни, бас-таба, видео

Печатать
Просмотров: 82
Tabbed by: bassm99
E-mail: alanmatthews1966@yahoo.co.uk

Tuning: E, A, D, G

"The Sound Of The Crowd" from the album "Dare" (1981)
Written by Burden/Oakey

Intro: (Play 1 Time) 

G|--------------------------------------------------------------------------|
D|--------------------------------------------------------------------------|
A|---------55555------------------------------------------------------------|
E|--5-7-7---------5-7-7--5-5------------------------------------------------|

Verse: (Play 4 Times) 

G|--------------------------------------------------------------------------|
D|--------------------------------------------------------------------------|
A|---------55555------------------------------------------------------------|
E|--5-7-7---------5-7-7--5-5------------------------------------------------|

Chorus:   

G|--------------------------------------------------------------------------|
D|--------------------------------------------------------------------------|
A|--10--5555--0--5-7-77-(x2)------------------------------------------------|
E|------------------------------5-7-----------------------------------------|

Repeat Intro:

Repeat Verse:

Chorus:

G|--------------------------------------------------------------------------|
D|--------------------------------------------------------------------------|
A|--10--5555--0--5-7-77-(x3)------------------------------------------------|
E|------------------------------5-7-----------------------------------------|

Bridge: 

G|--------------------------------------------------------------------------|
D|--------------------------------------------------------------------------|
A|--------------------------------------------------------------------------|
E|--5-7-(x8)--5-5-----------------------------------------------------------|

Chorus: (Play 8 Times)

G|--------------------------------------------------------------------------|
D|--------------------------------------------------------------------------|
A|--10--5555--0--5-7-77-----------------------------------------------------|
E|--------------------------------------------------------------------------|

End: (Play 12 Times)

G|--------------------------------------------------------------------------|
D|--------------------------------------------------------------------------|
A|--------------------------------------------------------------------------|
E|--5-7---------------------------------------------------------------------|
Добавлено: 17.08.2013
Другие материалы по этой песне:
  • Аккорды и текст

Страница создана 24.03.2012
http://primanota.ru/human-league/the-sound-of-the-crowd-chords.htm
Привет, Гость.
Предлагаем пройти революционный курс по гитаре.
Подарок от PrimaNota.Ru, забирай!