PrimaNota.ru - самый крупный в мире бесплатный архив песенных текстов, аккордов, табулатур и нот


Hum - Aphids - таба, видео

Регистрация Запомнить меня
Войти через:  Facebook Google Twitter Vk Yandex Mail.ru

Hum - Aphids - таба, видео

Печатать
Просмотров: 104
Уроки эстрадного вокала в Санкт-Петербурге
    e|-----------------------------------------------------------------|
    B|-----6---------------------------------6-6-----------------------|
GTR G|---------6----6--------6-------6-----------6---6-6-----6-------6-|
 1  D|-4-4--------4-----6--4-----6-4-----6-4-------4-----6-4-----6-4---| 
    A|-----------------------------------------------------------------|
    D|-----------------------------------------------------------------|

    e|-----------------------------------------------------------------|
    B|-----6---------------------------------6-6-----------------------|
GTR G|---------6----6--------6-------6-----------6---6-6-----6-------6-|
 1  D|-4-4--------4-----6--4-----6-4-----6-4-------4-----6-4-----6-4---| 
    A|-----------------------------------------------------------------|
    D|-----------------------------------------------------------------|

    e|-----------------------------------------------------------------|
    B|-----------------------------------------------------------------|
GTR G|-----------------------------------------------------------------|
 2  D|-4---------------------------------------------------------------|
    A|-4-(Ring out)----------------------------------------------------|
    D|-4---------------------------------------------------------------|

    e|-----------------------------------------------------------------|
    B|-----6---------------------------------6-6-----------------------|
GTR G|---------6----6--------6-------6-----------6---6-6-----6-------6-|
 1  D|-4-4--------4-----6--4-----6-4-----6-4-------4-----6-4-----6-4---| 
    A|-----------------------------------------------------------------|
    D|-----------------------------------------------------------------|

    e|---------------------------------------------------------|
    B|---------------------------------------------------------|
GTR G|---------------------------------------------------------|
 2  D|-(4)-------------------6-6-6-6-6-6-6-6\-4--4-------------|
    A|-(4)------------------------------------------2-2-2-4--0-|
    D|-(4)-----------------------------------------------------|

    e|-4-|
    B|-4-|
GTR G|-6-| strum this chord for a while.
1+2 D|-6-|
    A|-4-|
    D|-4-|

    e|-----------------------------------------------------------------|
    B|-----6---------------------------------6-6-----------------------|
GTR G|---------6----6--------6-------6-----------6---6-6-----6-------6-|
 1  D|-4-4--------4-----6--4-----6-4-----6-4-------4-----6-4-----6-4---| 
    A|-----------------------------------------------------------------|
    D|-----------------------------------------------------------------|

    e|-----------------------------------------------------------------|
    B|-----------------------------------------------------------------|
GTR G|-----------------------------------------------------------------|
 2  D|-4---------------------------------------------------------------| 
    A|-4-(Ring out)----------------------------------------------------|
    D|-4---------------------------------------------------------------|

    e|-----------------------------------------------------------------|
    B|-----6-6-------------------------------6-6-----------------------|
GTR G|---------6----6--------6-------6-----------6---6-6-----6-------6-|
 1  D|-6-4--------4-----6--4-----6-4-----6-4-------4-----6-4-----6-4---| 
    A|-----------------------------------------------------------------|
    D|-----------------------------------------------------------------|

    e|-------------------------------------------------------------------|
    B|-------------------------------------------------------------------|
GTR G|-------------------------------------------------------------------|
 2  D|-(4)---------------------------------------------------------------| 
    A|-(4)-(Ring out)----------------------------------------------------|
    D|-(4)---------------------------------------------------------------|

    e|-----|
    B|-----|
GTR G|--12-|
1+2 D|--10-| strum for a while
    A|--10-|
    D|--10-|

    e|-----------------------------------------------------------------|
    B|-5-5-5-5-5-5-5-5-5-5-3-3-3-3-3-3-5-5-5-5-5-5-5-5-5-5-3-3-3-3-3-3-|
GTR G|-5-5-5-5-5-5-5-5-5-5-5-5-5-5-5-5-5-5-5-5-5-5-5-5-5-5-5-5-5-5-5-5-|
1+2 D|-3-3-3-3-3-3-3-3-3-3-3-3-3-3-3-3-3-3-3-3-3-3-3-3-3-3-3-3-3-3-3-3-|
    A|-3-3-3-3-3-3-3-3-3-3-3-3-3-3-3-3-3-3-3-3-3-3-3-3-3-3-3-3-3-3-3-3-|
    D|-3-3-3-3-3-3-3-3-3-3-3-3-3-3-3-3-3-3-3-3-3-3-3-3-3-3-3-3-3-3-3-3-|

    e|---|
    B|-5-|
GTR G|-5-|
1+2 D|-2-| strum for a while
    A|-2-|
    D|-2-|

    e|-------------------------------------------------|
    B|-------------------------------------------------|
GTR G|-6-6-6-6-6-6-6-6-6-6-6-6-6-6-6-6-6-6-6-6-6-6-6-6-|
 1  D|-6-6-6-6-6-6-6-6-6-6-6-6-6-6-6-6-6-6-6-6-6-6-6-6-| x2
    A|-4-4-4-4-4-4-4-4-4-4-4-4-4-4-4-4-4-4-4-4-4-4-4-4-|
    D|-4-4-4-4-4-4-4-4-4-4-4-4-4-4-4-4-4-4-4-4-4-4-4-4-|

    e|-------------------------------------------------|
    B|-------------11--9--11--9------------------------|
GTR G|--------------------------------9^---9^----------|
 2  D|-8--6--8--6--------------------------------------| x2
    A|-------------------------------------------------|
    D|-------------------------------------------------|

    e|-------------------------------------------------|
    B|-------------------------------------------------|
GTR G|-6-6-6-6-6-6-6-6-6-6-6-6-6-6-6-6-6-6-6-6-6-6-6-6-|
 1  D|-6-6-6-6-6-6-6-6-6-6-6-6-6-6-6-6-6-6-6-6-6-6-6-6-| x2
    A|-4-4-4-4-4-4-4-4-4-4-4-4-4-4-4-4-4-4-4-4-4-4-4-4-|
    D|-4-4-4-4-4-4-4-4-4-4-4-4-4-4-4-4-4-4-4-4-4-4-4-4-|

    e|-------------------------------------------------|
    B|-------------------------------------------------|
GTR G|-10-10-10-10-10-10-10-10-10-10-10-10-10-10-10-10-|
 2  D|-------------------------------------------------| x2
    A|-------------------------------------------------|
    D|-------------------------------------------------|

    e|--------------------------------|
    B|--------------------------------|
GTR G|--------------------------------|
 1  D|-4-4-4--6-6-6-6--9-9-9-9--2-2-2-| x4
    A|-4-4-4--6-6-6-6--9-9-9-9--2-2-2-|
    D|-4-4-4--6-6-6-6--9-9-9-9--2-2-2-|

    e|---------------------------|
    B|---------------------------|
GTR G|--Guitar noise-------------|
 2  D|---------------------------|
    A|---------------------------|
    D|---------------------------|

    e|--------------------------------|
    B|--------------------------------|
GTR G|--------------------------------|
 1  D|-4-4-4--6-6-6-6--9-9-9-9--2-2-2-| x4
    A|-4-4-4--6-6-6-6--9-9-9-9--2-2-2-|
    D|-4-4-4--6-6-6-6--9-9-9-9--2-2-2-|

    e|---------------------------------------------------------------------------------|
    B|-----------------------------2-----------------------2----2----------------------|
GTR G|---3-4-3--4-3----3----4-3------3---------4-3---4-3-------------4-3-----4-3---4-3-|
 2  D|-4-------------4-----------4------4-4--4-----4-----4----4----4----4--4-----4-----|
    A|---------------------------------------------------------------------------------|
    D|---------------------------------------------------------------------------------|

    e|------------------------------------------------------------|
    B|------------------------------------------------------------|
GTR G|------------------------------------------------------------|
 1  D|-6----------------------------------------------------------|
    A|-4----------------------------------------------------------|
    D|-4----------------------------------------------------------|

    e|------------------------------------------------------6-6-6-|
    B|------------------------------------------------------6-6-6-|
GTR G|------------------------------------------------------6-6-6-|
 2  D|------------------------------------------------------4-4-4-|
    A|------------------------------------------------------------|
    D|------------------------------------------------------------|

    e|------------------------------------------------------------|
    B|------------------------------------------------------------|
GTR G|------------------------------------------------------------|
 1  D|------------------------------------------------------------|
    A|------------------------------------------------------------|
    D|------------------------------------------------------------|

    e|--------------------------6-6-6-|
    B|--------------------------6-6-6-|
GTR G|--------------------------6-6-6-|
 2  D|--------------------------4-4-4-|
    A|--------------------------------|
    D|--------------------------------|

    e|--------------------------------|
    B|--------------------------------|
GTR G|--------------------------------|
 1  D|--------(4)---------------------|
    A|--------(4)-(fades back in)-----|
    D|--------(4)---------------------|

    e|--------------------------6-6-6-|
    B|--------------------------6-6-6-|
GTR G|--------------------------6-6-6-|
 2  D|--------------------------4-4-4-|
    A|--------------------------------|
    D|--------------------------------|

    e|--------------------------------|
    B|--------------------------------|
GTR G|--------------------------------|
 1  D|-(4)----------------------------| x3
    A|-(4)-(fades back in)------------|
    D|-(4)----------------------------|

    e|--------------------------6-6-6-|
    B|--------------------------6-6-6-|
GTR G|--------------------------6-6-6-|
 2  D|--------------------------4-4-4-| x3
    A|--------------------------------|
    D|--------------------------------|

    e|-----------------------------------------------------------------|
    B|-----6---------------------------------6-6-----------------------|
GTR G|---------6----6--------6-------6-----------6---6-6-----6-------6-|
 1  D|-3/4--------4-----6--4-----6-4-----6-4-------4-----6-4-----6-4---| 
    A|-----------------------------------------------------------------|
    D|-----------------------------------------------------------------|

    e|-----------------------------------------------------------------|
    B|-----------------------------------------------------------------|
GTR G|-----------------------------------------------------------------|
 2  D|-4---------------------------------------------------------------| 
    A|-4-(Ring out)----------------------------------------------------|
    D|-4---------------------------------------------------------------|

    e|-------------6-------------------6-----6---6----6----|
    B|-----------------------------------------------------|
GTR G|-/6--4--6--4-----4--3--4-6---3-4---3-4---34--34---34-|
 2  D|-----------------------------------------------------|
    A|-----------------------------------------------------|
    D|-----------------------------------------------------|

    e|-----------------------------------------------------|
    B|-----------------------------------------------------|
GTR G|-----------------------------------------------------|
 2  D|-(4)-------------------------------------------------| 
    A|-(4)-(Ring out)--------------------------------------|
    D|-(4)-------------------------------------------------|

    e|--------------------------------|
    B|--------------------------------|
GTR G|--------------------------------|
 1  D|-4-4-4--6-6-6-6--9-9-9-9--2-2-2-| x4
    A|-4-4-4--6-6-6-6--9-9-9-9--2-2-2-|
    D|-4-4-4--6-6-6-6--9-9-9-9--2-2-2-|

    e|---------------------------|
    B|---------------------------|
GTR G|--Guitar noise-------------|
 2  D|---------------------------|
    A|---------------------------|
    D|---------------------------|

    e|--------------------------------|
    B|--------------------------------|
GTR G|--------------------------------|
 1  D|-4-4-4--6-6-6-6--9-9-9-9--2-2-2-| x4
    A|-4-4-4--6-6-6-6--9-9-9-9--2-2-2-|
    D|-4-4-4--6-6-6-6--9-9-9-9--2-2-2-|

    e|---------------------------------------------------------------------------------|
    B|-----------------------------2-----------------------2----2----------------------|
GTR G|---3-4-3--4-3----3----4-3------3---------4-3---4-3-------------4-3-----4-3---4-3-|
 2  D|-4-------------4-----------4------4-4--4-----4-----4----4----4----4--4-----4-----| x2
    A|---------------------------------------------------------------------------------|
    D|---------------------------------------------------------------------------------|

    e|--------------|
    B|--------------|
GTR G|--------------|
 1  D|-4------------|
    A|-4------------|
    D|-4-(ring out)-|

    e|--------------|
    B|--------------|
    G|-4-3----------|
    D|--------------|
    A|--------------|
    D|--------------|

    e|-3333333333333333-------------------------------------------------------------------|
    B|-1111111111111111-11111111111111111111111111111111-11111111111111111111111111111111-|
GTR G|------------------00000000000000000000000000000000-22222222222222222222222222222222-|
1+2 D|------------------22222222222222222222222222222222-33333333333333333333333333333333-|
    A|------------------33333333333333333333333333333333-33333333333333333333333333333333-|
    D|------------------------------------------------------------------------------------|

    e|-------------------------------------------------------------------|
    B|-------------------------------------------------------------------|
GTR G|-44444444444444444444444444444444-55555555555555555555555555555555-|
1+2 D|-55555555555555555555555555555555-55555555555555555555555555555555-|
    A|-33333333333333333333333333333333-55555555555555555555555555555555-|
    D|-33333333333333333333333333333333-55555555555555555555555555555555-|

French girl comes in

    e|---------------------------------------------------------------------------------------------------|
    B|---------------------------------------------------------------------------------------------------|
GTR G|---------------------------------------------------------------------------------------------------|
 1  D|-1313131313131313131313131313131313131313131313131313131313131313-55555555555555555555555555555555-|
    A|-1111111111111111111111111111111111111111111111111111111111111111-33333333333333333333333333333333-|
    D|-1111111111111111111111111111111111111111111111111111111111111111-33333333333333333333333333333333-|

    e|------------------------------------------------------------------33333333333333333333333333333333-|
    B|-6-6-6-6-6-6-6-6-6-6-6-6-6-6-6-6-6-6-6-6-6-6-6-6-6-6-6-6-6-6-6-6--33333333333333333333333333333333-|
GTR G|-5-5-5-5-5-5-5-5-5-5-5-5-5-5-5-5-5-5-5-5-5-5-5-5-5-5-5-5-5-5-5-5--55555555555555555555555555555555-|
 2  D|---------------------------------------------------------------------------------------------------|
    A|---------------------------------------------------------------------------------------------------|
    D|---------------------------------------------------------------------------------------------------|
 
    e|-------------------------------------------------------------------|
    B|-------------------------------------------------------------------|
GTR G|----------------------------------44444444444444444444444444444444-|
 1  D|-55555555555555555555555555555555-33333333333333333333333333333333-| 
    A|-33333333333333333333333333333333-33333333333333333333333333333333-|
    D|-55555555555555555555555555555555-33333333333333333333333333333333-|

    e|----------------------------------33333333333333333333333333333333-|
    B|-88888888888888888888888888888888-33333333333333333333333333333333-|
GTR G|-99999999999999999999999999999999-55555555555555555555555555555555-|
 2  D|-99999999999999999999999999999999----------------------------------|
    A|-------------------------------------------------------------------|
    D|-------------------------------------------------------------------|

    e|-------------------------------------------10p7--------------------|
    B|------------------------------------------------8---8-----8--------|
GTR G|--------------------------------------------------9-----7----9-----|
 3  D|-------------------------------------------------------------------|
    A|-------------------------------------------------------------------|
    D|-------------------------------------------------------------------|


    e|-------------------------------------------------------------------|
    B|-------------------------------------------------------------------|
GTR G|----------------------------------44444444444444444444444444444444-|
 1  D|-55555555555555555555555555555555-33333333333333333333333333333333-| 
    A|-33333333333333333333333333333333-33333333333333333333333333333333-|
    D|-55555555555555555555555555555555-33333333333333333333333333333333-|

    e|----------------------------------33333333333333333333333333333333-|
    B|-88888888888888888888888888888888-33333333333333333333333333333333-|
GTR G|-99999999999999999999999999999999-55555555555555555555555555555555-|
 2  D|-99999999999999999999999999999999----------------------------------|
    A|-------------------------------------------------------------------|
    D|-------------------------------------------------------------------|
Добавлено: 03.12.2015
Вам также может быть интересно:
Другие материалы по этой песне:
  • Аккорды и текст

Страница создана 03.12.2015
http://primanota.ru/hum/aphids-chords.htm
Привет, Гость.
Предлагаем пройти революционный курс по гитаре.
Подарок от PrimaNota.Ru, забирай!