PrimaNota.ru - самый крупный в мире бесплатный архив песенных текстов, аккордов, табулатур и нот


Hujan - Di Kala Bulan Bermain Biola - таба, видео

Регистрация Запомнить меня
Войти через:  Facebook Google Twitter Vk Yandex Mail.ru

Hujan - Di Kala Bulan Bermain Biola - таба, видео

Печатать
Просмотров: 159
"Di Kala Bulan Bermain Biola" - guitar solo

By Ikram a.k.a botak
Krumboltz@gmail.com
18/5/2008

A'kum & salam sejahtera. Aku penah ckp maleh nak taip tab solo lagu ni, tp takpe la
bagi jugak la.
Aku rase tab ni 95% betul, maafla kalau susah nak faham, sbb aku pon susah nak tulis!!!
Timing figure sendiri, denga part solo tu byk2
Tak paham ke nak tanye pape ke email la aku Krumboltz@gmail.com

Raingers, enjoy!!!!

------------------------------------------------------------------------------------|
------------------------------------------------------------------------------------|
---------------10/11--11-11----12/14--12-11----10/11--11-11----12/14--12-11---------|
---------11h12--------------14--------------14--------------14--------------14------|
-----12-----------------------------------------------------------------------------|
--14--------------------------------------------------------------------------------|

------------------------------------------------------------------------------------|
------------------------------------------------------------------------------------|
------------------------------------------------11-----11-12--11--------------------|
--10/11--12-14-10/11-----11-12--11-12-14--12-14-----14-----------14-----------------|
----------------------14------------------------------------------------------------|
------------------------------------------------------------------------------------|

----------------------------------------------------------------------------------------------|
------------------------------------------------------------------12h13h14--------------------|
---------------------------------------------11/12p11----11-12-14----------13/14-14-------14--|
--9/10--10-10--12-12/14--12-10-9----9-10-12-----------14----------------------------15/16-----|
---------------------------------12-----------------------------------------------------------|
----------------------------------------------------------------------------------------------|

--------------------------------14-15-11-14-12----10-8/9--------------------------------------|
-------10-------------------------------------12---------10--10-------10----------------------|
--9h11----10h11p9\7--9---7---------------------------------11----11h12---10h11-10/11--7---7---|
-------------------9---9----------------------------------------------------------------9-----|
----------------------------------------------------------------------------------------------|
----------------------------------------------------------------------------------------------|

---------------------15-17--13/14--------------------13/14----14-15-17\-----------------|
-----------------15---------------15----------------------------------------------------|
--------14----16--------------------14-12--11s12-----10/11----11-12-14\-----------------|
------16---17-------------------------------------12-------12---------------------------|
----17----------------------------------------------------------------------------------|
--14------------------------------------------------------------------------------------|

--14-15-17--------------------------------------------------------------------------|
----------15--14-15-17--------------------------------------------------------------|
----------------------16--15-16-18--------------------------------------------------|
----------------------------------17--16-17-19-16-----------------------------------|
------------------------------------------------------------------------------------|
------------------------------------------------------------------------------------|

-------------------------------------------------------------------------------------|
---------------------------10-----------12--------------------------10---------------|
--21\16--16/18\14-----11h12--10h11---------12---------------------9----12-9-10-(11)--|
----------------------------------12---------14-12\9---9-12-10/11--------------------|
--19\14--14/16\12------------------------------------10------------------------------|
-------------------------------------------------------------------------------------|

mase nak abis ni ni die ade tambah2 ikut suke.....

--10-9-12-10-----------9---------7h10p7-------------|
-------------10-9-12-10--10------------7h10p7-------|
----------------------------11---------------7h9p6--|
----------------------------------------------------|
----------------------------------------------------|
----------------------------------------------------|

Tamat~~~~
Добавлено: 29.06.2012
Другие материалы по этой песне:
  • Аккорды и текст

Страница создана 08.03.2012
http://primanota.ru/hujan/di-kala-bulan-bermain-biola-chords.htm
Привет, Гость.
Предлагаем пройти революционный курс по гитаре.
Подарок от PrimaNota.Ru, забирай!