PrimaNota.ru - самый крупный в мире бесплатный архив песенных текстов, аккордов, табулатур и нот


Huh Gak - The Person Who Once Loved Me - таба, видео

Регистрация Запомнить меня
Войти через:  Facebook Google Twitter Vk Yandex Mail.ru

Huh Gak - The Person Who Once Loved Me - таба, видео

Печатать
Просмотров: 104
허각 (Huh Gak)- 나를 사랑했던 사람아 (The Person Who Once Loved Me)

Disclaimer: This is not the official tabs for the song. It is purely a 
representational piece for the melody of the song. If there are any improvements 
that can be edited directly, please contact me (credits will be due given)

Standard Tuning. In order to play in tune with the song, try practicing with the 
instrumental version to understand the timing.

Email: maverick218@hotmail.com

INTRO

E||------6-7---7-----4|-6---4---4----------------------|
B||---7------5---4-7--|---7------7-5-4-----5-4---------|
G||-4-----------------|---------------4--4-----4-3-4---|
D||-------------------|--------------------------------|
A||-------------------|--------------------------------|
E||-------------------|--------------------------------|

VERSE 1

E||-------------------|--4-----------------------------|
B||-4-5-----4---------|----7-----5----4-6------4--7-8--|
G||-------4---6-4-3-4-|------3-6-----------------------|
D||-----6-------------|-----------4-6-----------4------|
A||-------------------|-------------------7------------|
E||-------------------|--------------------------------|


E||-------------------|--------------------------------|
B||-----------4-------|-------------------------7------|
G||-----8---4--6------|---4-----6-----4-3-6-------3-5-3|
D||-5-8---------------|------2------6-------4----------|
A||-------7-----------|---4-------7--------------------|
E||-------------------|--------------------------------|

E||-------------------|-----4--------------------------|
B||-------------------|----------7-----5-4--5s7--------|
G||-7s9--11-9-8--6s8--|6------6----4------------4-6----|
D||-------------------|--9-----8-----6-----------------|
A||-------------------|--------------------------------|
E||-------------------|--------------------------------|

E||------------------4|4----------------7s11-9---------|
B||------7-7-8--------|4-7s9-11-12--5------------------|
G||-6s8--------6-8-4--|4------------------------1-4-3--|
D||-------------------|---------------9--------4-------|
A||-------------------|--------------------------------|
E||-------------------|--------------------------------|

CHORUS

E||-------------------|--------------------------------|
B||---7---7------5-7--|-5-4---7---7--------5-7-5-----7-|
G||-6---6------6------|-----6---4---6---7--------4-6---|
D||---------9-9-------|---------------8----------------|
A||-------------------|--------------------------------|
E||-------------------|--------------------------------|

E||-------------------|--------------------------------|
B||-----7-----9-11-12-|-12-----9------5-----5-----5---7|
G||-6-----6-----------|-----------4-----4-----4-4---4--|
D||---9-----8---------|----11-------6-----6------------|
A||-------------------|--------------------------------|
E||-------------------|--------------------------------|

E||-------------------|--------------------------------|
B||-5s7---------------|-7-14-12------------------------|
G||-----9-8-8-9-9s11--|--------------------------------|
D||-------------------|--------------------------------|
A||-------------------|--------------------------------|
E||-------------------|--------------------------------|

VERSE 2

E||-------------------|--------------------------------|
B||-------------5-7---|-5-4-------------7--5-7-5-------|
G||--6-8-6---6--------|-----6-6s8---6------------4-6---|
D||--------9----------|-----------9---8----------------|
A||-------------------|--------------------------------|
E||-------------------|--------------------------------|

E||-7-9-9s11-11-9-7---|--------------------------------|
B||-----------------9-|------5-----5---*-------------*-|
G||-------------------|--4-----4-------*-Instrumental*-|
D||-------------------|----6-----6-----*-------------*-|
A||-------------------|--------------------------------|
E||-------------------|--------------------------------|

CHORUS (follow the violin, the drums will overshadow so listen in carefully)

E||-------------------|--------------------------------|
B||---5-4-------------|------------4-7-5-4---4-------4-|
G||-4-----6-4---------|-------4-6----------6---4-3-4--4|
D||-----------6-8-4---|-4-6-4--------------------------|
A||-----------------7-|--------------------------------|
E||-------------------|--------------------------------|

E||-------------------|------------4-------------------|
B||-*--------------*--|--7-4-5-7-4--4-7-------4-7------|
G||-*--VIOLIN SOLO-*--|-----------------6-4-6-----8-6-8|
D||-*--------------*--|--------------------------------|
A||-------------------|--------------------------------|
E||-------------------|--------------------------------|

E||-------------------|---------------6-7---9-7----7---|
B||-7-----4-2---------|--9---7------------5-----11-----|
G||---4-3-----4---3-4-|----4---6-6s8-------------------|
D||-------------6-----|--------------------------------|
A||-------------------|--------------------------------|
E||-------------------|--------------------------------|

E||-------------------|--------------------------------|
B||-7-7-5-------------|--*--------*--------------------|
G||--------8-4-6------|--*B CHORD-*--------------------|
D||-------------------|--*--------*--------------------|
A||-------------------|--------------------------------|
E||-------------------|--------------------------------|
Добавлено: 18.07.2013
Вам также может быть интересно:
Другие материалы по этой песне:
  • Аккорды и текст

Страница создана 18.07.2013
http://primanota.ru/huh-gak/the-person-who-once-loved-me-chords.htm
Привет, Гость.
Предлагаем пройти революционный курс по гитаре.
Подарок от PrimaNota.Ru, забирай!