PrimaNota.ru - самый крупный в мире бесплатный архив песенных текстов, аккордов, табулатур и нот


Huh Gak 허각 Ft Zia 지아 - I Need You - таба, видео

Регистрация Запомнить меня
Войти через:  Facebook Google Twitter Vk Yandex Mail.ru

Huh Gak 허각 Ft Zia 지아 - I Need You - таба, видео

Печатать
Просмотров: 116
-------------------------------------------------------------------------------
                             Huh Gak (허각) ft. Zia (지아) - I Need You
-------------------------------------------------------------------------------
Tabbed by: Big E
E-mail: 

Tuning: Standard
    +       +  +       +          +       +  +       +
e|--------7-x--------5-------3-|--------2-x--------5-------5-|
B|------7---x------5-------4---|------3---x------6-------6---|
G|----7-----x----5-------4-----|----0-----x----5-------4-----|
D|--5-------x--4---------------|--2-------x--0-------5-------|
A|----------x----------2-------|----------x------------------|
E|----------x------------------|----------x------------------|


    +       +  +       +     +       +         +       +
e|--------3-x--------3-x--|----------5h7p5-----------2-x--|
B|------5---x------3---x--|--------5-------5-------3---x--|
G|----4-----x----2-----x--|------5-----------5---4-----x--|
D|----------x----------x--|----5---------------5-------x--|
A|--3-------x--2-------x--|--0-------------------------x--|
E|----------x----------x--|----------------------------x--|

Four beats per bar (the "+"s on top are the guides). The "x"s mean to hit and mute the strings. 

The last note sounds like a 4th fret on the B string, but to avoid weird fingering the above works just as
well.


************************************

| /   slide up
| \   slide down
| h   hammer-on
| p   pull-off
| ~   vibrato
| +   harmonic
| x   Mute note
| b   Bend
| pb  Pre-bend
| br  Bend release
| pbr Pre-bend release
| brb Bend release bend

************************************
Добавлено: 05.09.2015
Другие материалы по этой песне:
  • Аккорды и текст

Страница создана 05.09.2015
http://primanota.ru/huh-gak-ft-zia-/i-need-you-chords.htm
Привет, Гость.
Предлагаем пройти революционный курс по гитаре.
Подарок от PrimaNota.Ru, забирай!