PrimaNota.ru - самый крупный в мире бесплатный архив песенных текстов, аккордов, табулатур и нот


Hugh Cornwell - Stuck In Daily Mail Land - таба, видео

Регистрация Запомнить меня
Войти через:  Facebook Google Twitter Vk Yandex Mail.ru

Hugh Cornwell - Stuck In Daily Mail Land - таба, видео

Печатать
Просмотров: 55
-----------------------------------------------------------------------------
                STUCK IN DAILY MAIL LAND - Hugh Cornwell
-----------------------------------------------------------------------------
Artist Website: http://www.hughcornwell.com/
Tabbed by: Thorben Keeling
E-mail: bubblegumpunkabilly@hotmail.co.uk

There's a good acoustic version of it on youtube, that I'd recommend in order to get the 
rhythm right, any corrections welcome, enjoy: http://www.youtube.com/watch?v=Sd21X8WCw6s

Tuning: EADGBe

Chorus:
               x3
e|-0-------------|-----------|
B|---2-3-0-2---0-|-2---0-----|
G|-----------2---|---2---1-2-|
D|---------------|-----------|
A|---------------|-----------|
E|---------------|-----------|

Verse:
   G   A   E   G   A   E   A Asus
e|-3---5---0---3---5---0---0-0-0-0-2-|
B|-3---5---0---3---5---0---2-3-2-3-2-|
G|-4---6---1---4---6---1---2-2-2-2-2-|
D|-5---7---2---5---7---2---2-2-2-2-2-|
A|-5---7---2---5---7---2---0-0-0-0-0-|
E|-3---5---0---3---5---0---0-0-0-0-0-|

Instrumental Bridge (Play whole bridge twice):
   F#  E   A Asus  x2 Asus E   A   F# Asus E   A Asus
e|-2---0---0-0-0-0-0-|-0---0---0---2---0---0---0-0-0-0-0-|
B|-2---0---2-3-2-3-2-|-3---0---2---2---3---0---2-3-2-3-2-|
G|-3---1---2-2-2-2-2-|-2---1---2---3---2---1---2-2-2-2-2-|
D|-4---2---2-2-2-2-2-|-2---2---2---4---2---2---2-2-2-2-2-|
A|-4---2---0-0-0-0-0-|-0---2---0---4---0---2---0-0-0-0-0-|
E|-2---0---0-0-0-0-0-|-0---0---0---2---0---0---0-0-0-0-0-|

************************************

| /   slide up
| \   slide down
| h   hammer-on
| p   pull-off
| ~   vibrato
| +   harmonic
| x   Mute note
| b   Bend
| pb  Pre-bend
| br  Bend release
| pbr Pre-bend release
| brb Bend release bend

************************************
Song Structure & Lyrics:

Chorus

Verse 1:
You won't believe what I read in the paper this morning,
But it's true, there's no smoke without fire, their reporting never fails,
I just can't wait till it drops through the box in the morning,
It's my treat for the day, with the wife, she's still yawning,
As we read, everyday, it's the truth, no distorting, never tales,

Chorus:
Stuck in Daily Mail Land,
Stuck in Daily Mail Land,
But you don't understand,

Verse 2:
Some people knock it I know, but for me, it's the Bible,
I believe every word guarantees my survival, I'm a fan,
I just don't care what they say, just be sure, I don't listen,
To the lies that they say, that the paper's on a mission,
'Cause the wife and me agree to ignore all the negatives we can,

Chorus:
Stuck in Daily Mail Land,
Stuck in Daily Mail Land,
But you don't understand,

[Instrumental Bridge]

Chorus:
Stuck in Daily Mail Land,
Stuck in Daily Mail Land,
But you don't understand,

Verse 3:
I never read all the rest, it's a test of my loyalty,
Don't need any more, I get bored with variety, I'm sure,
You know I've read everyday, come what may, since my puberty,
My Ma and my Pa used to swear it's validity,
How can you suggest, or molest, it's sincerity is pure,

Chorus:
Stuck in Daily Mail Land,
Stuck in Daily Mail Land,
But you don't understand,

[Instrumental Bridge]

Chorus:
Stuck in Daily Mail Land,
Stuck in Daily Mail Land,
But you don't understand.
Добавлено: 21.09.2013
Другие материалы по этой песне:
  • Аккорды и текст

Страница создана 21.09.2013
http://primanota.ru/hugh-cornwell/stuck-in-daily-mail-land-chords.htm
Привет, Гость.
Предлагаем пройти революционный курс по гитаре.
Подарок от PrimaNota.Ru, забирай!