PrimaNota.ru - самый крупный в мире бесплатный архив песенных текстов, аккордов, табулатур и нот


Huey Lewis The News - Workin For A Livin' - текст песни, бас-таба, видео

Регистрация Запомнить меня
Войти через:  Facebook Google Twitter Vk Yandex Mail.ru

Huey Lewis The News - Workin For A Livin' - текст песни, бас-таба, видео

Печатать
Просмотров: 54
Transcribed by Gary Ramsey

 

 

Gtr I (E A D G) - 'Staff'


  Q=158
 4/4
  Gtr I
  E E E E E E E E   E E E E E E E E   E E E E E E E E   E E E E E E E E
|-----------------|-----------------|-----------------|------------------|
|-----------------|-----------------|-----------------|---------5---4-2--|
|-0-0-3-4---------|-0-0-3-4---------|-0-0-3-4---------|-0-0-3-4---5------|
|---------3-3-2-0-|---------3-3-2-0-|---------3-3-2-0-|------------------|


  E E E E E E E E   E E E E E E E E   E E E E E E E E   E E E E E E E E
|-----------------|-----------------|-----------------|-----------------|
|-----------------|-----------------|-----------------|---------5-5-4-2-|
|-0-0-3-4---------|-0-0-3-4---------|-0-0-3-4---------|-0-0-3-4---------|
|---------3-3-2-0-|---------3-3-2-0-|---------3-3-2-0-|-----------------|


  E E E E E E E E   E E E E E E E E   E E E E E E E E   E E E E E E E E
|-----------------|-----------------|-----------------|-----------------|
|-----------------|-----------------|-----------------|-----------------|
|-0-0-3-4---------|-0-0-3-4---------|-0-0-3-4---------|-0-0-3-4---------|
|---------3-3-2-0-|---------3-3-2-0-|---------3-3-2-0-|---------3-3-2-0-|


  E E E E E E E E   E E E E E E E E   E E E E E E E E   E E E E E E E E
|-----------------|-----------------|-----------------|-----------------|
|-----------------|-----------------|-----------------|-----------------|
|-0-0-3-4---------|-0-0-3-4---------|-0-0-3-4---------|-0-0-3-4---------|
|---------3-3-2-0-|---------3-3-2-0-|---------3-3-2-0-|---------3-3-2-0-|


  E E E E E E E E   E E E E E E E E   E E E E E E E E   +E  E E E E E E E
|-----------------|-----------------|-----------------|-------------------|
|-----------------|-----------------|-----------------|-------3-4---------|
|-0-0-3-4---------|-0-0-3-4---------|-0-0-3-4---3-4-5-|-(5)-5-----3-3-2-0-|
|---------3-3-2-0-|---------3-3-2-0-|---------5-------|-------------------|


  E E E E E E E E   E E E E E E E E   E E E E E E E E   E E E E E E E E
|-----------------|-----------------|-----------------|-----------------|
|-0-0-3-4---------|-----------------|-----------------|-----------------|
|---------3-3-2-0-|-0-0-3-4---------|-0-0-3-4---------|---------------0-|
|-----------------|---------3-3-2-0-|---------3-3-2-0-|-3-3-3-3-2-3-3---|


  E E E E E E E E   E E Q  H      W          E E E E E E E E
|-----------------|-------------|----------|-----------------|
|-----------------|-------------|----------|-----------------|
|-4-5-5-4-5-5-5-4-|-------------|----------|-----3-4---------|
|-----------------|-5-----------|----------|-5-5-----3-3-2-0-|


  E E E E E E E E   E E E E E E E E   E E E E E E E E   E E E E E E E E
|-----------------|-----------------|-----------------|-----------------|
|-----------------|-----------------|---------5---4-2-|-----------------|
|-0-0-3-4---------|-0-0-3-4---------|-0-0-3-4---------|-0-0-3-4---------|
|---------3-3-2-0-|---------3-3-2-0-|-----------------|---------3-3-2-0-|


  E E E E E E E E   E E E E E E E E   E E E E E E E E   E E E E E E E E
|-----------------|-----------------|-----------------|-----------------|
|-----------------|-----------------|---------5-5-4-2-|-----------------|
|-0-0-3-4---------|-0-0-3-4---------|-0-0-3-4---------|-0-0-3-4---------|
|---------3-3-2-0-|---------3-3-2-0-|-----------------|---------3-3-2-0-|


  E E E E E E E E   E E E E E E E E   E E E E E E E E   +E  E E E E E E E
|-----------------|-----------------|-----------------|-------------------|
|-----------------|-----------------|-----------------|-------3-4---------|
|-0-0-3-4---------|-0-0-3-4---------|-0-0-3-4---3-4-5-|-(5)-5-----3-3-2-0-|
|---------3-3-2-0-|---------3-3-2-0-|---------5-------|-------------------|


  E E E E E E E E   E E E E E E E E   E E E E E E E E   E E E E E E E E
|-----------------|-----------------|-----------------|-----------------|
|-0-0-3-4---------|-----------------|-----------------|-----------------|
|---------3-3-2-0-|-0-0-3-4---------|-0-0-3-4---------|---------------0-|
|-----------------|---------3-3-2-0-|---------3-3-2-0-|-3-3-3-3-2-3-3---|


  E E E E E E E E   E E Q  H      W          E E E E E E E E
|-----------------|-------------|----------|-----------------|
|-----------------|-------------|----------|-5-4-2-----------|
|-4-5-5-4-5-5-5-4-|-------------|----------|-------4-5-5-5-5-|
|-----------------|-5-----------|----------|-----------------|


  E E E E E E E E   E E E E E E E E   E E E E E E E E   E E E E E E E E
|-----------------|-----------------|-----------------|-----------------|
|-5-4-2-----------|-5-4-2-----------|-5-4-2-----------|-----------------|
|-------4-5-5-5-5-|-------4-5-5-5-5-|-------4-5-4-2-0-|-------4-5-4-2-0-|
|-----------------|-----------------|-----------------|-3-2-0-----------|


  E E E E E E E E   E E E E E E E E   E E E E E E E E   E E E E E E E E
|-----------------|-----------------|-----------------|-----------------|
|-----------------|-----------------|-2-2-----2-2-----|-----------------|
|-------4-5-4-2-0-|-------4-5-4-2-0-|-----------------|-0-0-3-4---------|
|-3-2-0-----------|-3-2-0-----------|-----0-0-----0-0-|---------3-3-2-0-|


  E E E E E E E E   E E E E E E E E   E E E E E E E E   E E E E E E E E
|-----------------|-----------------|-----------------|-----------------|
|-----------------|-----------------|---------5---4-2-|-----------------|
|-0-0-3-4---------|-0-0-3-4---------|-0-0-3-4---5-----|-0-0-3-4---------|
|---------3-3-2-0-|---------3-3-2-0-|-----------------|---------3-3-2-0-|


  E E E E E E E E   E E E E E E E E   E E E E E E E E   E E E E E E E E
|-----------------|-----------------|-----------------|-----------------|
|-----------------|-----------------|-----------------|-----3-4---------|
|-0-0-3-4---------|-0-0-3-4---------|-0-0-3-4-----4-4-|-5-5-----3-3-2-0-|
|---------3-3-2-0-|---------3-3-2-0-|---------5-5-----|-----------------|


  E E E E E E E E   E E E E E E E E   E E E E E E E E   E E E E E E E E
|-----------------|-----------------|-----------------|-----------------|
|-0-0-3-4---------|-----------------|-----------------|-----------------|
|---------3-3-2-0-|-0-0-3-4---------|-0-0-3-4---------|-----------------|
|-----------------|---------3-3-2-0-|---------3-3-2-0-|-3-3-3-3-2-3-3-3-|


  E E +S  S E E E E E   E E E E E E E E   E E E E E E E E   E E E E E E E E
|---------------------|-----------------|-----------------|------------------|
|---------------------|-----------------|-----------------|------------------|
|-5-5-(5)---4-5-5-5-4-|-----3-4---------|-0-0-3-4---------|-0-0-3-4----------|
|---------------------|-5-5-----3-3-2-0-|---------3-3-2-0-|---------3-3-2-0--|


  E E E E E E E E   E E E E E E E E   E E E E E E E E   E E E E E E E E
|-----------------|-----------------|-----------------|-----------------|
|-----------------|-----------------|---------5---4-2-|-----------------|
|-0-0-3-4---------|-0-0-3-4---------|-0-0-3-4---5-----|-0-0-3-4---------|
|---------3-3-2-0-|---------3-3-2-0-|-----------------|---------3-3-2-0-|


  E E E E E E E E   E E E E E E E E   E E E E E E E E   +E  E E E E E E E
|-----------------|-----------------|-----------------|-------------------|
|-----------------|-----------------|-----------------|-------3-4---------|
|-0-0-3-4---------|-0-0-3-4---------|-0-0-3-4---3-4-5-|-(5)-5-----3-3-2-0-|
|---------3-3-2-0-|---------3-3-2-0-|---------5-------|-------------------|


  E E E E E E E E   E E E E E E E E   E E E E E E E E   E E E E E E E E
|-----------------|-----------------|-----------------|-----------------|
|-0-0-3-4---------|-----------------|-----------------|-----------------|
|---------3-3-2-0-|-0-0-3-4---------|-0-0-3-4---------|---------------0-|
|-----------------|---------3-3-2-0-|---------3-3-2-0-|-3-3-3-3-2-3-3---|


  E E E E E E E E   E E E E E E E E   E E E E E E E E   E E E E E E E E
|-----------------|-----------------|-----------------|-----------------|
|-----------------|-----------------|-----------------|-----------------|
|-4-5-5-4-5-5-5-4-|-----3-4---------|-0-0-3-4---------|---------------0-|
|-----------------|-5-5-----3-3-2-0-|---------3-3-2-0-|-3-3-3-3-2-3-3---|


  E E E E E E E E   E E E E E E E E   E E E E E E E E   E E E E E E E E
|-----------------|-----------------|-----------------|-----------------|
|-----------------|-----------------|---------5-5-4-2-|-----------------|
|-4-5-5-4-5-5-5-4-|-----3-4---------|-0-0-3-4---------|-----------------|
|-----------------|-5-5-----3-3-2-0-|-----------------|-3-3-3-3-2-3-3-3-|


  E E E E E E E E   E E Q  H      E E E E E E E E   E E E E E E E E
|-----------------|-------------|-----------------|-----------------|
|-----------------|-------------|-----------------|-----------------|
|-5-5-5-5-4-5-5-5-|-------------|-----3-4---------|-0-0-3-4---------|
|-----------------|-5-----------|-5-5-----3-3-2-0-|---------3-3-2-0-|


  E E E E E E E E   E E E E E E E E   E E E E E E E E   E E E E E E E E
|-----------------|-----------------|-----------------|-----------------|
|-----------------|---------5---4-2-|-----------------|-----------------|
|-0-0-3-4---------|-0-0-3-4---5-----|-0-0-3-4---------|-0-0-3-4---------|
|---------3-3-2-0-|-----------------|---------3-3-2-0-|---------3-3-2-0-|


  E E E E E E E E   E E E E +H       +W           +W
|-----------------|----------------|------------|--------|
|-----------------|----------------|------------|--------|
|-0-0-3-4---------|-0-0-0-0-(0)----|-(0)--------|-(0)----|
|---------3-3-2-0-|----------------|------------|--------|


  +H     +E  e +s  S E
|-------------------------*|
|-------------------------*|
|-(0)----(0)-0-(0)--------*|
|-------------------------*|




--------------------------------------------------------------------------------


Duration Legend
---------------
W - whole; H - half; Q - quarter; E - 8th; S - 16th; T - 32nd; X - 64th; a - acciaccatura
+ - note tied to previous; . - note dotted; .. - note double dotted
Uncapitalized letters represent notes that are staccato (1/2 duration)
Irregular groupings are notated above the duration line
Duration letters will always appear directly above the note/fret number it represents the
duration for.  Duration letters with no fret number below them represent rests.  Multi-
bar rests are notated in the form Wxn, where n is the number of bars to rest for.  Low
melody durations appear below the staff

Tablature Legend
----------------
 h   - hammer-on
 p   - pull-off
 b   - bend
 pb  - pre-bend
 r   - bend release (if no number after the r, then release immediately)
 /\  - slide into or out of (from/to "nowhere")
 s   - legato slide
 S   - shift slide
 - natural harmonic
[n]  - artificial harmonic
n(n) - tapped harmonic
 ~   - vibrato
 tr  - trill
 T   - tap
 TP  - trem. picking
 PM  - palm muting
\n/  - tremolo bar dip; n = amount to dip
 \n  - tremolo bar down
 n/  - tremolo bar up
/n\  - tremolo bar inverted dip
 =   - hold bend; also acts as connecting device for hammers/pulls
 <> - volume swell (louder/softer)
 x   - on rhythm slash represents muted slash
 o   - on rhythm slash represents single note slash

Misc Legend
-----------
 |  - bar
||  - double bar
||o - repeat start
o|| - repeat end
*|  - double bar (ending)
 :  - bar (freetime)
 $  - Segno
 &  - Coda
Tempo markers -  = BPM(8/16=s8/s16), where s8 = swing 8ths, s16 = swing 16ths



--------------------------------------------------------------------------------


Добавлено: 18.02.2016
Другие материалы по этой песне:
  • Аккорды и текст

Страница создана 17.05.2012
http://primanota.ru/huey-lewis-the-news/workin-for-a-livin-chords.htm
Привет, Гость.
Предлагаем пройти революционный курс по гитаре.
Подарок от PrimaNota.Ru, забирай!