PrimaNota.ru - самый крупный в мире бесплатный архив песенных текстов, аккордов, табулатур и нот


Hudson Taylor - Speechless - таба, видео

Регистрация Запомнить меня
Войти через:  Facebook Google Twitter Vk Yandex Mail.ru

Hudson Taylor - Speechless - таба, видео

Печатать
Просмотров: 67
Уроки эстрадного вокала в Санкт-Петербурге
Tuning: Drop D
Key: ~ tremolo

Intro
E---------------------------------------------------------------------------|
B---------------------------------------------------------------------------|
G---------------------------------------------------------------------------|
D---------------------------------------------------------------------------|
A--0----12~~---------9~~-----------7~~----------5~~---------2~~-------0-----|
D--0----0~~~---------0~~-----------0~~----------0~~---------0~~-------0-----|

Verse (x2)
E---------X-----------XXX---------0-----------X---------XXX----0------------|
B---------X-----------XXX---------0-----------X---------XXX----0------------|
G---------X-----------XXX--x4-----4-----------X---------XXX----0------------|
D--7---7--X--7---7-7--XXX---------5----7---7--X--9---9--XXX----2----7---7---|
A--7h9-9--X--7h9-9-9--XXX---------5----7h9-9--X--7h9-9--XXX----2----7h9-9---|
D--0---0--X--0---0-0--XXX---------5----0---0--X--0---0--XXX----2----0---0---|

E--X---------XXX------------------------------------------------------------|
B--X---------XXX------------------------------------------------------------|
G--X---------XXX------------------------------------------------------------|
D--X--7---7--XXX------------------------------------------------------------|
A--X--7h9-9--XXX------------------------------------------------------------|
D--X--0---0--XXX------------------------------------------------------------|

Chorus
E---------------------------------------------------------------------------|
B---------------------------------------------------------------------------|
G--7---7---7---------7---7---7---7---0-------4--6---------------------------|
D--7---7---7---x2----7---7---7---7---2-------5--7---------------------------|
A--5---0---0---------5---0---0---0---2-------5--7---------------------------|
D--0---7---5---------0---7---5---4---2-------5--7---------------------------|

Transition Back Into Verse
E---------X---------XXX---------------X----------10-10-10-------------------|
B---------X---------XXX---------------X----------10-10-10-------------------|
G---------X---------XXX---------------X----------11-11-11-------------------|
D--7---7--X--9---9--XXX---x3---7---7--X--7---9---12-12-12-------------------|
A--7h9-9--X--7h9-9--XXX--------7h9-9--X--7h9-9------------------------------|
D--0---0--X--0---0--XXX--------0---0--X--0---0------------------------------|

Bridge
E--0---0---0---0-------0---0---0---0----------------------------------------|
B--0---0---0---0-------0---0---0---0----------------------------------------|
G--7---6---2---4-------7---6---0---4----------------------------------------|
D--9---7---4---5---x3--9---7---2---5----------------------------------------|
A--9---7---4---5-------9---7---2---5----------------------------------------|
D--9---7---4---5-------9---7---2---5----------------------------------------|

Final Chord
E---2-----------------------------------------------------------------------|
B---3-----------------------------------------------------------------------|
G---2-----------------------------------------------------------------------|
D---0-----------------------------------------------------------------------|
A---------------------------------------------------------------------------|
D---------------------------------------------------------------------------|
Добавлено: 11.08.2015
Другие материалы по этой песне:
  • Аккорды и текст

Страница создана 11.08.2015
http://primanota.ru/hudson-taylor/speechless-chords.htm
Привет, Гость.
Предлагаем пройти революционный курс по гитаре.
Подарок от PrimaNota.Ru, забирай!