PrimaNota.ru - самый крупный в мире бесплатный архив песенных текстов, аккордов, табулатур и нот


Hudson & Troop - Frameless - таба, видео

Регистрация Запомнить меня
Войти через:  Facebook Google Twitter Vk Yandex Mail.ru

Hudson & Troop - Frameless - таба, видео

Печатать
Просмотров: 72
-------------------------------------------------------------------------------
                             FRAMELESS - Hudson & Troop
-------------------------------------------------------------------------------
Tabbed by:Azul
E-mail:

Tuning: Standard

The strumming pattern length is not completely accurate. 
Listen to the song to get it correct.
Explanation, lyrics and youtube link are at the end of the tabs.

Its a short and lovely song, hope you enjoy the tabs.
And bear with me on the messy way I wrote the tabs, it saved me a lot of copy and pasting.

Intro: 
         Dm
e|---------------------------------------------------------------------------|
B|-------3-------3-----------------------------------------------------------|
G|---2-------2---------------------------------------------------------------|
D|-0---0---0---0-------------------------------------------------------------|
A|---------------------------------------------------------------------------|
E|---------------------------------------------------------------------------|

Verse:

Part 1:
         Dm                     F
e|---------------------------------------------------------------------------|
B|-------3-------3-------------1-------1-------------------------------------|
G|---2-------2-------------2-------2-----------------------------------------|
D|-0---0---0---0---------3---3---3---3---------------------------------------|
A|---------------------------------------------------------------------------|
E|---------------------------------------------------------------------------|

Part 2:
          Dm                     F                 Bb
e|---------------------------------------------------------------------------|
B|--------3-------3-------------1-------1---------3-------3------------------|
G|---2-------2-------------2-------2----------3-------3----------------------|
D|-0---0---0---0---------3---3---3---3---------------------------------------|
A|------------------------------------------1---1---1---1--------------------|
E|---------------------------------------------------------------------------|

Part 3:
          C                  Dm
e|---------------------------------------------------------------------------|
B|-------1-------1-----------3-------3---------------------------------------|
G|---0-------0-----------2-------2-------------------------------------------|
D|---------------------0---0---0---0-----------------------------------------|
A|-3---3---3---3-------------------------------------------------------------|
E|---------------------------------------------------------------------------|


Bridge (Part between verses):
         Dm                    F
e|---------------------------------------------------------------------------|
B|-------3-------3-------------1-------1-------------------------------------|
G|---2-------2-------------2-------2-----------------------------------------|
D|-0---0---0---0---------3---3---3---3---------------------------------------|
A|---------------------------------------------------------------------------|
E|---------------------------------------------------------------------------|

Chorus:

(Prechorus)
         A                  Bb
e|---------------------------------------------------------------------------|
B|-------2-------2----------3-------3----------------------------------------|
G|---2-------2----------3-------3--------------------------------------------|
D|---------------------------------------------------------------------------|
A|-0---0---0---0------1---1---1---1------------------------------------------|
E|---------------------------------------------------------------------------|

(Starts singing here ->)
(Repeat this section 4 times for chorus)
         F                  A                  Bb
e|---------------------------------------------------------------------------|
B|-------1-------1----------2-------2----------3-------3---------------------|
G|---2-------2----------2-------2----------3-------3-------------------------|
D|---------------------------------------------------------------------------|
A|--------------------0---0---0---0------1---1---1---1-----------------------|
E|-1---1---1---1-------------------------------------------------------------| x4

Note:
1. and 4. verse should be played: Part 1 -> Part 2 -> 2x Part 3
2. and 3. verse: 2x Part 1 -> 2x Part 3
In the order: 1. verse -> 2. verse -> chorus -> 3. verse -> 4. verse -> chorus


Lyrics: https://www.musixmatch.com/lyrics/Hudson-and-Troop/Frameless
Youtube: https://www.youtube.com/watch?v=QyFcRj72MtM

Добавлено: 07.06.2016
Другие материалы по этой песне:
  • Аккорды и текст

Страница создана 07.06.2016
http://primanota.ru/hudson-and-troop/frameless-chords.htm
Привет, Гость.
Предлагаем пройти революционный курс по гитаре.
Подарок от PrimaNota.Ru, забирай!