PrimaNota.ru - самый крупный в мире бесплатный архив песенных текстов, аккордов, табулатур и нот


Hubert Von Goisern - Sieger - таба, видео

Регистрация Запомнить меня
Войти через:  Facebook Google Twitter Vk Yandex Mail.ru

Hubert Von Goisern - Sieger - таба, видео

Печатать
Просмотров: 81
Уроки эстрадного вокала в Санкт-Петербурге
---------------------------------------------------------------------------------------------------
                                          Artist - Hubert Von Goisern
                                         *****************************
                                                 Song - Sieger
                                                ***************
                                             Album - S'nix (2008)  
                                            **********************
                                             Tabbed By - Ayreon77
                                            **********************
---------------------------------------------------------------------------------------------------
Tuning = Standard




SMALL SOLO
***********
02:38                     
    rb            b     02:46
e|-14--12----12--14-14-|----------------|
B|--------14-----------|-12-10----10----|
G|---------------------|-------13----12-|
D|---------------------|----------------|
A|---------------------|----------------|
E|---------------------|----------------|


-------------------------
-------------------------
03:20
SOLO 1
*******                                                                           
e|------|---------------------|-s-------|---------b--------|--------b-|
B|------|----------h--p-p-----|-\9-9----|-s---12-14-14-~~~-|-12-14-14-|
G|-s--8-|-8-9-11--9-11-9-8----|------11-|-\11--------------|----------|
D|-\9---|------------------11-|---------|------------------|----------|
A|------|---------------------|---------|------------------|----------|
E|------|---------------------|---------|------------------|----------|

                 b 
e|----12-14-14-14-12----|--b-----s--------------|
B|-15----------------15-|-17-17--\17-15-17-17~~-|
G|----------------------|-----------------------|
D|----------------------|-----------------------|
A|----------------------|-----------------------|
E|----------------------|-----------------------|
03:35
   s                       b                 s    s           s      p    b    rbp    b     rbp      s
e|-\14-14-14------14-12-|-14-14---14----14-14\17--\-|-------14\17--15-14-17-|-17--15-17--17-17-15-17-\-|
B|-------------12-------|------------12-------------|-----------------------|---------|---|------------|
G|----------------------|---------------------------|----14-----------------|---------|---|------------|
D|----------------------|---------------------------|-12--------------------|---------|==hold----------|
A|----------------------|---------------------------|-----------------------|------------bend----------|
E|----------------------|---------------------------|-----------------------|--------------------------|

             
e|-s---17----17-|-s---17----14-------------------|-s-------------------------------------------|
B|-\17----17----|-\17----17----14-12-11-12-14----|-\11-14--rbp---------------------------------|
G|--------------|-----------------------------11-|--------13--11-13-11------h---11-------------|
D|--------------|--------------------------------|---------------------13-11-13----13-11----11-|
A|--------------|--------------------------------|---------------------------------------13----|
E|--------------|--------------------------------|---------------------------------------------|


e|-b-9-rb----p----------------------------------------------------------|
B|-9---9--7-9-7--h--7---------------------------------------------------|
G|--------------6-8---8-6------p-s----------------br-----------Feedback-|
D|------------------------8-6-8-6\4-6-4----h--4-6-6-4-4~~~~~~~~~~~------|
A|--------------------------------------6-4-6---------------------------|
E|----------------------------------------------------------------------|


-------------------------
-------------------------
04:31
SOLO 2
*******
    b   b  b  b    b   rbp             h                                                    
e|-12--12-12-12---12--12--10----|-14-12-14--12----12-|--------s--|-s-------b--rp---------|
B|---------------------------12-|--------------15----|-15-14-15\-|-\15-17-17----15----15-|
G|------------------------------|--------------------|-----------|-----------------16----|
D|------------------------------|--------------------|-----------|-----------------------|
A|------------------------------|--------------------|-----------|-----------------------|
E|------------------------------|--------------------|-----------|-----------------------|

04:41
    b    
e|-17--17-15-14-|-12--------12---------------|-s---------------s-|-------------|----------s---|
B|--------------|----15-14-----14-15-14-~~~~-|-\12-14-12-11-~~~\-|-11-12-11-14-|-12-14-12-\11-|
G|--------------|----------------------------|-------------------|-------------|--------------|
D|--------------|----------------------------|-------------------|-------------|--------------|
A|--------------|----------------------------|-------------------|-------------|--------------|
E|--------------|----------------------------|-------------------|-------------|--------------|

04:49
e|-------------------------------------------------------------|
B|-11-12-11----------------------------------------------------|
G|----------13-11----11----------------------------------------|
D|----------------13----13-14-13-11-------11-------------------|
A|----------------------------------14-13----13-14-~~~~~~~~~~~-|
E|-------------------------------------------------------------|



ENJOY..........
Добавлено: 03.01.2016
Другие материалы по этой песне:
  • Аккорды и текст

Страница создана 03.01.2016
http://primanota.ru/hubert-von-goisern/sieger-chords.htm
Привет, Гость.
Предлагаем пройти революционный курс по гитаре.
Подарок от PrimaNota.Ru, забирай!