PrimaNota.ru - самый крупный в мире бесплатный архив песенных текстов, аккордов, табулатур и нот


Hroes Del Silencio - La Dolorosa - таба, видео

Регистрация Запомнить меня
Войти через:  Facebook Google Twitter Vk Yandex Mail.ru

Hroes Del Silencio - La Dolorosa - таба, видео

Печатать
Просмотров: 74
No estaba en la lista de peticiones pero aqui esta, La Dolorosa
esta cancion no pertenese a ningun album, para bajar la cancio ve aqui:


Pronto les tendre la tablatura de Recuerda.

B
                   E                B        E   B
hemos llegado a lo mas profundo del corazon
                 E         B       E    B
esta es la profecia de simeon
                       E            B    E   B
la lanza en ristre se aferra a la cruz.
                E              B   E
sois mi madre, como no amaros.

C#   E
B E B E


|Intro
A------------------7-9--7-9-7---9-||
E-7-7-7-7-7-7-7-7--------------7--||

|Sec 1                            ||Sec 2
D---------------------------------||---------7=-8===-8-7-----
G---------------------------------||-10===-10------------10=-
B------------------7-9-7---9-7--9-||-------------------------
E-7-7-7-7-7-7-7-7--------7-----7--||-------------------------

|Sec 3          ||Sec 4                    |Outro
D-----------9==-||---------7=-8===-8-7-----|--------
G---9==-9==-9==-||-10==--10------------10=-|8======-
B---9==-9==-7==-||-------------------------|--------
E-7-7==-7==-----||-------------------------|--------

==Intro
==Sec 1
Canta Bunbury durante Sec 1.

==Sec 2; Sec 3

[Repite Sec 1; Sec 2] Sec 4 Outro
Добавлено: 04.03.2016
Вам также может быть интересно:
Другие материалы по этой песне:
  • Аккорды и текст

Страница создана 04.03.2016
http://primanota.ru/hroes-del-silencio/la-dolorosa-chords.htm
Привет, Гость.
Предлагаем пройти революционный курс по гитаре.
Подарок от PrimaNota.Ru, забирай!