PrimaNota.ru - самый крупный в мире бесплатный архив песенных текстов, аккордов, табулатур и нот


Hroes Del Silencio - Ha Muerto Un Heroe - таба, драм-таба, видео

Регистрация Запомнить меня
Войти через:  Facebook Google Twitter Vk Yandex Mail.ru

Hroes Del Silencio - Ha Muerto Un Heroe - таба, драм-таба, видео

Печатать
Просмотров: 72
Intro es con bateria , luego entra guitarra y bajo

1---------------3--------------------------------
2------8-7-5------5-----8--7--5--5-------8--7--5-
3------9-7-5--------5---9--7--5----5-----9--7--5-
4------9-7-5------------9--7--5------5---9--7--5-
5------7-5-3------------7--5--3----------7--5--3-
6------------------------------------------------


1/-----------------------------/
2/----8--------7---------5-----/
3/------9--------7-------5-----/
4/--------9--------7-----5-----/
5/-----------------------3-----/
6/-----------------------------/


Todo termino Al fin

1/--------------------------------------/
2/--------------------------------------/
3/--------------------------------------/
4/--------------------------------------/
5/----7-7-7-7-5-5-5-5-3-3-3-3-5-5-5-5---/
6/--------------------------------------/
Em     D      C      D
y tu vuelta exige una fiesta
1/--------------------------------------/
2/--------------------------------------/
3/--------------------------------------/
4/--------------------------------------/
5/----7-7-7-7-5-5-5-5-3-3-3-3-5-5-5-5---/
6/--------------------------------------/
Em     D   C   D
por tu valor
1/--------------------------------------/
2/--------------------------------------/
3/--------------------------------------/
4/--------------------------------------/
5/----7-7-7-7-5-5-5-5-3-3-3-3-5-5-5-5---/
6/--------------------------------------/


Em     D      C       D
por la patria merecí morir
1/--------------------------------------/
2/--------------------------------------/
3/--------------------------------------/
4/--------------------------------------/
5/----7-7-7-7-5-5-5-5-3-3-3-3-5-5-5-5---/
6/--------------------------------------/
Em       D       C          D
pero por la patria quise salvar tu honor.
1/--------------------------------------/
2/--------------------------------------/
3/--------------------------------------/
4/--------------------------------------/
5/----7-7-7-7-5-5-5-5-3-3-3-3-5-5-5-5---/
6/--------------------------------------/
Em              D         C
sólo tú pudiste conseguir vencer
1/---------------------------------/
2/---------------------------------/
3/-------9------7------5----5------/x2
4/-----9------7------5----5--------/
5/---7------5------3---------------/
6/---------------------------------/
Em           D       C
con las botas puestas no hay nada que temer

1/---------------------------------/
2/---------------------------------/
3/-------9------7------5----5------/ x2
4/-----9------7------5----5--------/
5/---7------5------3---------------/
6/---------------------------------/

la espada ensangrentada  esperas la señal

1/---------------------------------/
2/---------------------------------/
3/-------9------7------5----5------/ x2
4/-----9------7------5----5--------/
5/---7------5------3---------------/
6/---------------------------------/


Em           D               C
los muertos a tus pies son tu propio altar

1/---------------------------------/
2/---------------------------------/
3/-------9------7------5----5------/ x2
4/-----9------7------5----5--------/
5/---7------5------3---------------/
6/---------------------------------/

coro

hoy ha muerto un héroe   sonriente, luchador
G
1/-------------------------------------------/
2/---12--------------------------------------/
3/---12-12-------12-------12--------12-------/
4/---12----12-------12-------12--------12----/
5/---10-------10-------10-------10--------10-/
6/-------------------------------------------/

y aunque la sangre surgiera de él el enemigo se desangra con él.
G     G           F#    F#      F    F      Em    Em
1/----------------------------------------------------/
2/---12*--12*-----11*---11*-----10*--10*----8-8--8-8--/
3/---12*--12*-----11*---11*-----10*--10*----9-9--9-9--/
4/---12*--12*-----11*---11*-----10*--10*----9-9--9-9--/
5/---10*--10*-----9-*---9-*-----8-*--8-*----7-7--7-7--/
6/----------------------------------------------------/


 Todo ha terminado al fin

1/--------------------------------------/
2/--------------------------------------/
3/--------------------------------------/
4/--------------------------------------/
5/----7-7-7-7-5-5-5-5-3-3-3-3-5-5-5-5---/
6/--------------------------------------/
Em          D      C         D
y tu muerte exige una fiesta en tu honor

1/--------------------------------------/
2/--------------------------------------/
3/--------------------------------------/
4/--------------------------------------/
5/----7-7-7-7-5-5-5-5-3-3-3-3-5-5-5-5---/
6/--------------------------------------/


Em       D             C
por la patria mereciste morir
1/---------------------------------/
2/---------------------------------/
3/-------9------7------5----5------/ x2
4/-----9------7------5----5--------/
5/---7------5------3---------------/
6/---------------------------------/
Em              D          C
pero con tu muerte la patria muere por ti.
1/---------------------------------/
2/---------------------------------/
3/-------9------7------5----5------/ x2
4/-----9------7------5----5--------/
5/---7------5------3---------------/
6/---------------------------------/


coro

hoy ha muerto un héroe   sonriente, luchador
G
1/-------------------------------------------/
2/---12--------------------------------------/
3/---12-12-------12-------12--------12-------/
4/---12----12-------12-------12--------12----/
5/---10-------10-------10-------10--------10-/
6/-------------------------------------------/

y aunque la sangre surgiera de él el enemigo se desangra con él.
G     G           F#    F#      F    F      Em    Em
1/----------------------------------------------------/
2/---12*--12*-----11*---11*-----10*--10*----8-8--8-8--/
3/---12*--12*-----11*---11*-----10*--10*----9-9--9-9--/
4/---12*--12*-----11*---11*-----10*--10*----9-9--9-9--/
5/---10*--10*-----9-*---9-*-----8-*--8-*----7-7--7-7--/
6/----------------------------------------------------/


1/-----7--------5-----------3-------/
2/-------8--------7------------5----/
3/--9--------7-----------5-------5--/ x3
4/----------------------------------/
5/----------------------------------/
6/----------------------------------/


1/-----------------------------/
2/----8--------7---------5-----/
3/------9--------7-------5-----/
4/--------9--------7-----5-----/
5/-----------------------3-----/
6/-----------------------------/

coro

hoy ha muerto un héroe   sonriente, luchador
G
1/-------------------------------------------/
2/---12--------------------------------------/
3/---12-12-------12-------12--------12-------/
4/---12----12-------12-------12--------12----/
5/---10-------10-------10-------10--------10-/
6/-------------------------------------------/

y aunque la sangre surgiera de él el enemigo se desangra con él.
G     G           F#    F#      F    F      Em    Em
1/----------------------------------------------------/
2/---12*--12*-----11*---11*-----10*--10*----8-8--8-8--/
3/---12*--12*-----11*---11*-----10*--10*----9-9--9-9--/
4/---12*--12*-----11*---11*-----10*--10*----9-9--9-9--/
5/---10*--10*-----9-*---9-*-----8-*--8-*----7-7--7-7--/
6/----------------------------------------------------/
Добавлено: 02.04.2016
Другие материалы по этой песне:
  • Аккорды и текст

Страница создана 13.03.2016
http://primanota.ru/hroes-del-silencio/ha-muerto-un-heroe-chords.htm
Привет, Гость.
Предлагаем пройти революционный курс по гитаре.
Подарок от PrimaNota.Ru, забирай!