PrimaNota.ru - самый крупный в мире бесплатный архив песенных текстов, аккордов, табулатур и нот


Hroes Del Silencio - El Cuadro 2 - таба, видео

Регистрация Запомнить меня
Войти через:  Facebook Google Twitter Vk Yandex Mail.ru

Hroes Del Silencio - El Cuadro 2 - таба, видео

Печатать
Просмотров: 55
ESTA ES LA MEJOR VERSION Q VAN A ENCONTRAR DE ESTA ROLA CALIFIQUEN CHIDO
ESTE ES EL INTRO Q HACE EL CLAVICORDIO
A VER SI LES LATE EL ARREGLO A 2 GUITARRAS O GUITARRA-BAJO

E[--13---------12-13-15-13-]-12h13h12---12------------]
B[--15---------------------]---------15---13----------]
G[--14---------------------]--------------------------]
D[--12---------------------]--------------------------]GUITARRA 1
A[-------------------------]--------------------------]
E[-------------------------]--------------------------]

E[-------------------------]--------------------------]
B[-------------------------]--------------------------]
G[--7--------7-------------]-5----------------------5-]
D[--7------7---------------]-5--------------------5---]GUITARRA 2
A[--5----5-----------------]-3------------------3-----]
E[-------------------------]--------------------------]


E[--10------12-14-12-------]----------------------------]
B[--12---------------15-12-]-14-15-14-12-14-------------]
G[--11---------------------]----------------14----------]
D[---9---------------------]----------------------------]GUITARRA 1
A[-------------------------]----------------------------]
E[-------------------------]----------------------------]

E[-------------------------]----------------------------]
B[-------------------------]----------------------------]
G[--4-------4--------------]-----2----------------------]
D[--4-----4----------------]---2--------------------0---]GUITARRA 2
A[--2---2------------------]-0--------------0---0-------]
E[-------------------------]----------------------------]


E[--13---15-18-17-15-17-18-]
B[--15---------------------]
G[--14---------------------]
D[--12---------------------]GUITARRA 1
A[-------------------------]
E[-------------------------]

E[-------------------------]
B[-------------------------]
G[--7----------7----10-----]
D[--7-----7----------------]GUITARRA 2
A[--5----------------------]
E[-------------------------]


E[-17-18-17-15-17--------10-12-10---]-10------17--15-12-]
B[---------------18----11--------12-]-12------12--------]
G[-------------------10-------------]-11------11--------]
D[----------------------------------]--9----------------]GUITARRA 1
A[----------------------------------]-------------------]
E[----------------------------------]-------------------]

E[----------------------------------]-------------------]
B[----------------------------------]-------------------]
G[----------5------------5---9------]-----4-------4--7--]
D[------5----------5----------------]---4-----4---------]GUITARRA 2
A[--3-------------------------------]-2-----------------]
E[----------------------------------]-------------------]


E[-----------------------------------------]--13-----]
B[-14-15-14-12-----14-15-14-12----12-14----]--15-----]
G[-------------14--------------14-------14-]--14-----]
D[-----------------------------------------]--12-----]GUITARRA 1
A[-----------------------------------------]---------]
E[-----------------------------------------]---------]

E[-----------------------------------------]---------]
B[-----------------------------------------]---------]
G[------------2---------2------6-----------]---7-----]
D[-------2----------2----------------------]---7-----]GUITARRA 2
A[--0--------------------------------0-----]---5-----]
E[-----------------------------------------]---------]


INTRO (DELAY Y CHORUS)
E[-12-13-12----12-13-12----12-13-12----12-13-12---]
B[----------15----------13----------12---------12-] ESTO SE REPITE
G[------------------------------------------------]   DOS VECES
D[------------------------------------------------]
A[------------------------------------------------]
E[------------------------------------------------]

E[-12-13-12-17-15-13-12----12-13-12----12-13-12h13h12----]
B[----------------------12----------12-------------------]
G[----------------------------------------------------14-]
D[-------------------------------------------------------]
A[-------------------------------------------------------]
E[-------------------------------------------------------]

VERSOS
   Dm                          C
E[-----------------------]---------------------]
B[---------------6-------]-------------5-------]
G[-----7-------7---7-----]-----5---5-----5-----]
D[---7---7---7-------7---]---5---5---5-----5---]
A[-5-------------------5-]-3-----------------3-]
E[-----------------------]---------------------]

  Bm                       A
E[-----------------------]---------------------------]
B[---------------3-------]-0h2-----2-----3p2-----0h2-]
G[-----4-------4---4-----]-0h2-------2-------2-------]
D[---4---4---4-------4---]-0h2--2------2-------2-----]
A[-2-------------------2-]---------------------------]
E[-----------------------]---------------------------]
?
(EN EL INTER DEL CLAVICORDIO HAGO ARMONICOS EN EL 5° TRASTE)
ESTO VA DESPUES DE ?SE NUBLA EN MI CEREBRO LA SITUACION

E[---------------------------------------------]
B[---6-6-5------6-6-5-------5-5-3------5-5-3---]
G[---------7----------7-----------5----------5-]
D[-0----------0--------------------------------]
A[------------------------3----------3---------]
E[---------------------------------------------]

E[---3-3-2-3----3-3-2-3---------------]
B[--------------------------3h2---0-2-]
G[------------------------------2-----]
D[------------------------------------]
A[-2----------2-----------0-----------]
E[------------------------------------]

SOLO
E[--------------------------------------------------]
B[--------------------------------------------------]
G[-7-7-9-(9br)-7-7-9-(9br)-5vib---7-9p7p5-7h5-7b-7b-]
D[--------------------------------------------------]
A[--------------------------------------------------]
E[--------------------------------------------------]

E[---10---9---7---------------------12-----------12-]
B[-7----7---7---7-9h10p9p7h9h7/9-10----10-9-9-10----]
G[--------------------------------------------------]
D[--------------------------------------------------]
A[--------------------------------------------------]
E[--------------------------------------------------]

E[-10-10-12-(12br)-10-------15-13-12h13p12-]
B[------------------------x----------------]
G[----------------------x------------------]
D[--------------------x--------------------]
A[-----------------------------------------]
E[-----------------------------------------]


E]-------12----13----12-------]
B]12-12-----13----12----12vib-]
G]----------------------------]
D]----------------------------]
A----------------------------]
E]----------------------------]


E[----15----14----12-----------------------------]
B[-12----12----12-----12-14h15p14p12h14p12-------]
G[-----------------------------------------14vib-]
D[-----------------------------------------------]
A[-----------------------------------------------]
E[-----------------------------------------------]

E]-------------------------------------]
B]-------------------------------------]
G]-------------12----------------------]
D]----10-12-12b---12br-12p10--------12-]
A]-/12-----------------------12-10--12-]
E]----------------------------------10-]

CUALQUIER DUDA SOBRE LOS TIEMPOS Y LAS NOTAS LO PUEDEN CHECAR AQUI:
 
CALIFIQUEN Y COMENTEN OK???
DUDAS,CORRECCIONES,PETICIONES,RECOMENDACIONES,ETC
AHI ESTA MI CORREO O EN EL VIDEO DE YOU TUBE
Добавлено: 18.04.2016
Другие материалы по этой песне:
  • Аккорды и текст

Страница создана 18.04.2016
http://primanota.ru/hroes-del-silencio/el-cuadro-2-chords.htm
Привет, Гость.
Предлагаем пройти революционный курс по гитаре.
Подарок от PrimaNota.Ru, забирай!