PrimaNota.ru - самый крупный в мире бесплатный архив песенных текстов, аккордов, табулатур и нот


Hozier - To Be Alone Live - таба, видео

Регистрация Запомнить меня
Войти через:  Facebook Google Twitter Vk Yandex Mail.ru

Hozier - To Be Alone Live - таба, видео

Печатать
Просмотров: 664
Hozier-To be alone(Live)
From Eden EP

Standard Tuning
Capo 1st
All notes relative to capo

b=bend
h=hammer on
p=pull off
/ and \ =slide
~ = slide
*=staccato

This is my first ever tab, really loving Hozier and couldnt find a tab for this song so 
thought id give it a go! Welcome for corrections :)
Thanks, Mel


Intro/Verse              bend up 1/2 tone (to fret 3) then down then pull off

E--------|----3-0-------|-------------------------------------------------|
B--------|-3-5---3-0----|----3--------------------------------------------|
G--------|-----------2~-|-2/4-4\2---------2bp0---0-2-0--REPEAT FROM RIFF B|
D--------|--------------|-0---0----------------2-------2------------------|
A--------|--------------|-------------------------------------------------|
E-0-0-0-0|-0-0-0-0-0-0-0|0-0-0-0-0-0-0-0-0-0-0-0-0-0-0-0-0-0-0-0-0-0-0-0-0|
Riff A    Riff B


          2nd ending:
E-------------------------------------------|
B-------------------------------------------|
G--0-2-0---0-2-0h2p0h2p0h2p0----------------|
D--------2-------------------0h2p0h2p0h2....|
A-------------------------------------------|
E--0-0-0-0-0-0-0-0-0-0-0-0-0-0-0-0-0-0-0-0-0|


Repeat intro for verse :
Never feel too good in crowds with folks around....


Bridge:
you don't know what hell you put me through....

E------------------------------------------------|
B------------------------------------------------|
G------------------------------------------------|
D--5-4-2-0-2-4-2-2-2-2-2--5-4-2-0-2-4-4-4-4-4-4-4|
A----------------2-2-2-2--------------2-2-2-2-2-2|
E----------------0-0-0-0-------------------------|

E-----------------------------------|
B-----------------------------------|
G-----------------------------------|
D--5-4-2-0-2-4-2-4-4-4-4-4-4--------|
A----------------2-2-2-2-2-2--------|
E-----------------------------------|

its the god that heroin prays to..

E-----------------------------|
B-----------------------------|
G-----------------------------|
D--5-4-2-0-2-4--2-2-2-2-2--2*-|
A---------------2-2-2-2-2--2*-|
E---------------0-0-0-0-0--0*-|


Chorus:

It feels good, girl it feels good...
E-----------------------------------------------|
B-----------------------------------------------|
G-----------------------------------------------|
D---PAUSE-----2-2-2--*2--2-2-2-2-2---2-5-2------|
A-------------2-2-2--*2--2-2-2-2-2---2-5-0------|
E-------------0-0-0--*0--0-0-0-0-0---0-3-0------|

Oh to be alone with you..
Repeat intro

Twiddley bit

E--------0h3--0h3/5\3p0h3p0h3p0h3p0h3p0---------------------------------|
B-----------------------------------------------------------------------|
G-0h2------------------------------------2b-0h2p0h2p0h2p0h2p0h2p0-0h2---|
D-0---------------------------------------------------------------------|
A-----------------------------------------------------------------------|
E-0-0-0-0-0-0-0-0-0-0-0-0-0-0-0-0-0-0-0-0-0-0-0-0-0-0-0-0-0-0-0-0-0-0-0-|


Back to intro/verse riff
there are questions I cant ask....


Then Bridge riff again

Chorus

END


Hope this all makes sense and it has helped you!

Melissa.hayes7@hotmail.co.uk
Добавлено: 09.05.2014
Другие материалы по этой песне:
  • Аккорды и текст

Страница создана 09.05.2014
http://primanota.ru/hozier/to-be-alone-live-chords.htm
Привет, Гость.
Предлагаем пройти революционный курс по гитаре.
Подарок от PrimaNota.Ru, забирай!