PrimaNota.ru - самый крупный в мире бесплатный архив песенных текстов, аккордов, табулатур и нот


Hozier - Dark End Of The Street - таба, видео

Регистрация Запомнить меня
Войти через:  Facebook Google Twitter Vk Yandex Mail.ru

Hozier - Dark End Of The Street - таба, видео

Печатать
Просмотров: 55
-------------------------------------------------------------------------------
                             Dark End of the Street - Hozier
-------------------------------------------------------------------------------
Tabbed by: David Dipeolu
E-mail:ddipeolu8@gmail.com

Tuning: Standard

e|------------------------0-0-----------------------3/5-3-0-0---0------------|
B|--------------------3/5---------------------------3/5-3--------------------|
G|----0h2-4-2-0h2-4-0-----2-0h2p0--0h2-4-2-0-2-2-0--------2-0h2-0------------|
D|---------------------------------------------------------------------------|
A|---------------------------------------------------------------------------|
E|----3---3-3-2---2-0-----0--------3---3-3---2-2-0---------------------------|

e|------2-2-x---------------------2---x--------------------------------------|
B|-1-1--3-3-x---------------------3---x------0---1---1---0-------------------|
G|----------x-0-----0-2-4-2-0---0-----x--0---0-----------0-------------------|
D|-2-2--0---x-0-0h2-----------0-2-----x--0-------1/2-1/2---------------------|
A|-3-3----0-x-----------------------0-x----------2/3-2/3---------------------|
E|-3-3------x-3-----------------0-----x--3-3---3---------3-------------------|

************************************

| /   slide up
| \   slide down
| h   hammer-on
| p   pull-off
| ~   vibrato
| +   harmonic
| x   Mute note
| b   Bend
| pb  Pre-bend
| br  Bend release
| pbr Pre-bend release
| brb Bend release bend

************************************
Добавлено: 22.05.2016
Вам также может быть интересно:
Другие материалы по этой песне:
  • Аккорды и текст

Страница создана 22.05.2016
http://primanota.ru/hozier/dark-end-of-street-chords.htm
Привет, Гость.
Предлагаем пройти революционный курс по гитаре.
Подарок от PrimaNota.Ru, забирай!