PrimaNota.ru - самый крупный в мире бесплатный архив песенных текстов, аккордов, табулатур и нот


Howling - Howling - таба, видео

Регистрация Запомнить меня
Войти через:  Facebook Google Twitter Vk Yandex Mail.ru

Howling - Howling - таба, видео

Печатать
Просмотров: 105
Уроки эстрадного вокала в Санкт-Петербурге
-------------------------------------------------------------------------------
                             HOWLING - Howling
-------------------------------------------------------------------------------

Off the album 'Sacred Ground'
You're basically just playing these two parts throughout the whole song.



Tuning: Standard


0.00 - 1.02 Intro + Verse
e|--------------------------------------------------------------|
B|--------------------------------------------------------------|
G|--------------------------------------------------------------|
D|-------4-----4--------7-----7--------4-----2-------4-----2----|
A|--------------------------------------------------------------|
E|-5-5-5---5-5---/7-7-7---7-7---\2-2-2---2-2---2-2-2---2-2------| x7

e|--------------------------------------------------------------|
B|--------------------------------------------------------------|
G|--------------------------------------------------------------|
D|-------4-----4--------7-----7--------4-----2------------------|
A|--------------------------------------------------------------|
E|-5-5-5---5-5---/7-7-7---7-7---\2-2-2---2-2---2-2-2-2----------| 


1.02 - 1.35 Chorus
e|--------------------------------------------------------------|
B|--------------------------------------------------------------|
G|-------9-----9---------7-----6-------2-----1------------------|
D|---------------------------------------------------6-----4----|
A|-9-9-9---9-9----/5-5-5---5-5----------------------------------|
E|-------------------------------2-2-2---2-2---0-0-0---0-0------|


e|--------------------------------------------------------------|
B|--------------------------------------------------------------|
G|-------9-----11--------7-----6-------2-----1------------------|
D|---------------------------------------------------6-----4----|
A|-9-9-9---9-9----/5-5-5---5-5----------------------------------|
E|-------------------------------2-2-2---2-2---0-0-0---0-0------| x2

e|-------------------------------------------------------------------------|
B|-------------------------------------------------------------------------|
G|-------9-----11--------7-----6-------2-----1-----------------------------|
D|---------------------------------------------------6-----6-------6-6-6---|
A|-9-9-9---9-9----/5-5-5---5-5---------------------------------------------|
E|-------------------------------2-2-2---2-2---0-0-0---0-0---0-0-0---------|

Do the verse then chorus again, then you're playing the verse part for pretty much the rest of the song

LYRICS
Hot nights coming
Keep the car running
Lavender fingers
Swallow my pollen

Gold I swam into your spell
On the rite of god we fell
You were plush and I laid bare
You had me howling
Cold I fell into your skin
On the night you led me
Under your sin
You had me howling
You had me howling

Blush

Golden siren
Under exposing
Come lay your weakness down
On the floor in the backseat

Gold I swam into your spell
On the rite of god we fell
You were plush and I laid bare
You had me howling
Cold I fell into your skin
On the night you led me
Under your sin
You had me howling
You had me howling

Blush

Blush



************************************

| /   slide up
| \   slide down
| h   hammer-on
| p   pull-off
| ~   vibrato
| +   harmonic
| x   Mute note
| b   Bend
| pb  Pre-bend
| br  Bend release
| pbr Pre-bend release
| brb Bend release bend

************************************
Добавлено: 02.01.2016
Другие материалы по этой песне:
  • Аккорды и текст

Страница создана 02.01.2016
http://primanota.ru/howling/howling-chords.htm
Привет, Гость.
Предлагаем пройти революционный курс по гитаре.
Подарок от PrimaNota.Ru, забирай!