PrimaNota.ru - самый крупный в мире бесплатный архив песенных текстов, аккордов, табулатур и нот


Howlin Wolf - Dont Dog Me Around - таба, видео

Регистрация Запомнить меня
Войти через:  Facebook Google Twitter Vk Yandex Mail.ru

Howlin Wolf - Dont Dog Me Around - таба, видео

Печатать
Просмотров: 89
As recorded by Howlin' Wolf
                 (From the 2002 Album HOWLIN' WOLF RIDES AGAIN)

Words and Music by Chester Burnette and Jules Taub
Arranged by Howlin' Wolf
Transcribed by TLSspider for Power Tab

Gtr I (E A D G B E) - 'Guitar'

 Intro
  Q=120(8=s8)
 4/4
  Gtr I
                       |-3-|                 |---3---| |-3-|   |-3-| |--3--|
  Q  Q.    E.    S E   E E E a E E E E E E   E.    S E E E E a E E E E a E E
|---------/3b3.5-0---:---------------------:-3b3.5p0-------------------------:
|------------------3-:-0-------------0-0-0-:---------3p0---------------------:
|--------------------:---3p2p0h2---2-2-2---:-------------3p2p0h1-------0h1---:
|--------------------:-----------2-1---1---:---------------------2p0h2-----2-:
|--------------------:-------------2---2---:---------------------------------:
|--------------------:---------------------:---------------------------------:


        |-3-| |-3-| |--3--|
  E E a E E E E E E E a E E    E  E E E E E Q
|---0-------0---------------|--0---------------||
|---------0---3-0-----------|-----0---0---0-0--||
|-----0h1---------3-2-0h1---|-------2---2-2-2--||
|-------------------------2-|-(2)---1---1-1-1--||
|---------------------------|-------2---2---2--||
|-0-------------------------|------------------||


  E                 A7                      E7
                       |-3-|        |-3-|       |---3---| |-3-|
  E E E E E E E E   Q  E E E Q      E E E   E E E.    S E E E E a a E E
|-----------------|-----------------------|---0h3b3.5p0------------------|
|-----------------|-----------------------|-------------3p0--------------|
|-----------------|-----------------------|-----------------3p2p0h2p0----|
|-----------------|-2------2-5b5.5--0h1h2-|---------------------------2--|
|---------2-2-4-4-|-0--3h4----------------|------------------------------|
|-0-0-4-4---------|-----------------------|-0----------------------------|


                              A7
          |-3-|       |-3-|       |-3-|         |-3-|      |-3-|        |-3-|
  +E  a E E E E +E  E E E E   E E E E E E     E E E E   Q  E E E Q      E E E
|---------0---0-(0)-0-------|-------------------------|-----------------------|
|-----------3---------------|-------------------------|-----------------------|
|-----0h1-------------------|-------------------------|-----------------------|
|-(2)-----------------------|-2-2-----2-5b5.5-5-2---2-|-2------2-5b5.5--0h1h2-|
|---------------------------|-0---3h4-------------4---|-0--3h4----------------|
|---------------------0h2h4-|-------------------------|-----------------------|


  E7
        |---3---| |-3-|                     |-3-|       |-3-|
  +E  E E     E E E E E T T T T E    E  a E E E E +E  E E E E
|-----0h3b3.5p0-------------------|---------0---0-(0)-0-------|
|---------------3p0---------------|-----------3---------------|
|-------------------3p2p0h2p0h2---|-----0h1-------------------|
|-(2)---------------------------2-|-(2)-----------------------|
|---------------------------------|---------------------0h1h2-|
|---------------------------------|--0------------------------|


  B7           B9   A7
                                          |-3-| |-3-|
  a E E Q  E E Q    Q  E E Q  E E   +E  E E E E E E E a a  E  E
|------------2----|---------------|-----0h3p0-------------------|
|-----0--------2--|---------------|-----------3p0---------------|
|-------2--2---2--|---------------|---------------3p2p0h2p(0)---|
|-0h1---1--1------|--------0h=1h2-|-(2)-----------------------2-|
|----------2------|-0--3h4--------|-----------------------------|
|-----------------|---------------|-----------------------------|


        B7
   E  E E E E E Q
|--0-----------------||
|-----0---0---0-0----||
|-------2---2-2-2----||
|-(2)---1---1-1-1----||
|--0----2-----2-2----||
|--------------------||


    E7
     S   S   S  S  S  S  S  S  S  S  S  S  S  S  S  S
||----------12----12----12----12----12----12----12----|
||o-10s(12)----12----12----12----12----12----12----12-|
||----------------------------------------------------|
||----------------------------------------------------|
||o---------------------------------------------------|
||----------------------------------------------------|


   S  S  S  S  S  S  S  S  S  S  S  S  Q
|-------12----12----12----12----12----12/---|
|-10s12----12----12----12----12----12-------|
|-------------------------------------------|
|-------------------------------------------|
|-------------------------------------------|
|-------------------------------------------|


   a  S  S  S  S  S  S  S  S  S  S  S  S  S  S  S  S
|-------12----12----12----12----12----12----12----12-|
|-10s12----12----12----12----12----12----12----12----|
|----------------------------------------------------|
|----------------------------------------------------|
|----------------------------------------------------|
|----------------------------------------------------|


      |------6-------|  |--3--| |---3---|
   a  S  S  S  S  S  S  E E S S S S S S E E E
|-------12----12----12--------8---7---5---0----|
|-10s12----12----12----10-9-8---7---5---4---2h=|
|----------------------------------------------|
|----------------------------------------------|
|----------------------------------------------|
|----------------------------------------------|


  A7                                          E7
               |-3-|        |-3-|     |-3-|        |---3---| |-3-|
  Q  E E E  E  E E E    Q   E E E Q   E E E    Q   E     E E E E E a a  E  E
|-5------------------|----------------------|------3b3.5p0-------------------|
|-5------------------|----------------------|--------------3p0---------------|
|-2------------------|----------------------|------------------3p2p0h2p(0)---|
|----0h2-5/-5/-2---2-|-(2)------2h5/--0h1h2-|-(2)--------------------------2-|
|----------------4---|--0---3h4-------------|--------------------------------|
|--------------------|----------------------|--0-----------------------------|


                              B7
          |-3-|       |-3-|
   E  a E E E E +E  E E E E   a E E Q  E E E E
|---------0---0-(0)-0-------|------------------|
|-----------3---------------|-----0-0----0---0-|
|-----0h1-------------------|-------2--2---2---|
|-(2)-----------------------|-0h1---1--1---1---|
|---------------------0h1h2-|-------2--2---2---|
|--0------------------------|------------------|


  E7
  |---3---| |-3-| |-3-|
  E     E E E E E E E E a a  E  E
|-3b3.5p0-------------------------|
|---------3p0---------------------|
|-------------3p2p0---0h3p2p(0)---|
|-------------------2-----------2-|
|---------------------------------|
|---------------------------------|


         E7          Am      E   B7             E
         |-3-| |-3-| |-3-|
   Q   a E E E E E E E E E   E E E E E E Q      E E E E E E E E
|------------0-----0-----0-|-----------------||-----------------|
|----------3-----2-----1---|-0-0-0-0---0-0--o||-----------------|
|------2s4-----3-----2-----|-1---2---2-2-2---||-----------------|
|-(2)----------------------|-----1---1---1---||-----------------|
|--------------------------|-----2---2---2--o||---------2-2-4-4-|
|--0-----------------------|-----------------||-0-0h3h4---------|


                                      |-3-| |-3-| |-3-| |-3-|
  E E E E E E E E   E E E E E E E E   E E E E E E E E E E E E
|-----------------|-----------------|-------------------------|
|-----------------|-----------------|-------------------------|
|-----------------|-----------------|-------------------------|
|-2-2-------------|-----------------|-2-4-2---2---------------|
|-----4-4-2-2-----|---------2-2-4-4-|-------4---4-2-4-2---2-4-|
|-------------4-4-|-0-0-4-4---------|-------------------4-----|


  A7                                             E7
     |-3-|       |-3-|         |-3-|     |-3-|       |---3---| |-3-|
  Q  E E E E  E  E E E     Q   E E E Q   E E E   E E E     E E E E E a a E E
|-----------------------|----------------------|---0h3b3.5p0------------------|
|-----------------------|----------------------|-------------3p0--------------|
|-----------------------|----------------------|-----------------3p2p0h2p0----|
|--------2-5/-5/-2---2/-|-(2)------2-5/--0h1h2-|-2-------------------------2--|
|-0--3h4-----------4----|--0---3-4-------------|------------------------------|
|-----------------------|----------------------|-0----------------------------|


                              B7
          |-3-|       |-3-|
  +E  a E E E E +E  E E E E   a E E E E E E E a E
|---------0---0-(0)-0-------|-------------2-------|
|-----------3---------------|-----0---------2-----|
|-----0h1-------------------|-------2---2---2-----|
|-(2)-----------------------|-0h1---1---1---------|
|---------------------0h1h2-|-------2---2---------|
|---------------------------|---------2-------3h4-|


  A7
                        |---3----|
  Q  E E Q  E E    E  E E      E E E E E E    E E E E E  Q.
|---------------|-----0-3b3.5/-0------------|------------3---|
|---------------|----------------3p0--------|------------3---|
|---------------|--------------------3p2----|------------1---|
|--------0--1h2-|-(2)--------------------5/-|-2---1h2----2---|
|-0--3h4--------|---------------------------|---2--------2---|
|---------------|--0------------------------|------------0---|


  +H   H
|-(3)-------*|
|-(3)-------*|
|-(1)-------*|
|-(2)-------*|
|-(2)-------*|
|-(0)-------*|


Duration Legend
---------------
W - whole; H - half; Q - quarter; E - 8th; S - 16th; T - 32nd; X - 64th; a - acciaccatura
+ - note tied to previous; . - note dotted; .. - note double dotted
Uncapitalized letters represent notes that are staccato (1/2 duration)
Irregular groupings are notated above the duration line
Duration letters will always appear directly above the note/fret number it represents the
duration for.  Duration letters with no fret number below them represent rests.  Multi-
bar rests are notated in the form Wxn, where n is the number of bars to rest for.  Low
melody durations appear below the staff

Tablature Legend
----------------
 h   - hammer-on
 p   - pull-off
 b   - bend
 pb  - pre-bend
 r   - bend release (if no number after the r, then release immediately)
 /\  - slide into or out of (from/to "nowhere")
 s   - legato slide
 S   - shift slide
  - natural harmonic
[n]  - artificial harmonic
n(n) - tapped harmonic
 ~   - vibrato
 tr  - trill
 T   - tap
 TP  - trem. picking
 PM  - palm muting
\n/  - tremolo bar dip; n = amount to dip
 \n  - tremolo bar down
 n/  - tremolo bar up
/n\  - tremolo bar inverted dip
 =   - hold bend; also acts as connecting device for hammers/pulls
 <>  - volume swell (louder/softer)
 x   - on rhythm slash represents muted slash
 o   - on rhythm slash represents single note slash

Misc Legend
-----------
 |  - bar
||  - double bar
||o - repeat start
o|| - repeat end
*|  - double bar (ending)
 :  - bar (freetime)
 $  - Segno
 &  - Coda
Tempo markers -  = BPM(8/16=s8/s16), where s8 = swing 8ths, s16 = swing 16ths


Добавлено: 25.03.2012
Другие материалы по этой песне:

Страница создана 25.03.2012
http://primanota.ru/howlin-wolf/dont-dog-me-around-chords.htm
Привет, Гость.
Предлагаем пройти революционный курс по гитаре.
Подарок от PrimaNota.Ru, забирай!