PrimaNota.ru - самый крупный в мире бесплатный архив песенных текстов, аккордов, табулатур и нот


Howlin Maggie - Alcohol - аккорды и текст, видео

Регистрация Запомнить меня
Войти через:  Facebook Google Twitter Vk Yandex Mail.ru

Howlin Maggie - Alcohol - аккорды и текст, видео

Печатать
Просмотров: 79
Уроки эстрадного вокала в Санкт-Петербурге
Alcohol
Howlin Maggie
Artist: Howlin' Maggie
Song: Alcohol
Album: Honeysuckle Strange  (Columbia 483748-2, 1996)


Intro and main riff (intro clean, main riff w/ distortion)

E --------------------|
B --------------------|
G -1-1-1-1-1----------|
D -2-2-2-2-2--0---0---|
A -2-2-2-2-2----4-----|
E -0-0-0-0-0--------3-|

Chorus

   D        C#       C    B        A#       A     E

E --------------------------------------------------------------
B -7-7-7-7--6-6-6-6--5-5--4-4-4-4--3-3-3-3--2-2-----------------
G -7-7-7-7--6-6-6-6--5-5--4-4-4-4--3-3-3-3--2-2---1-1-11-11-1-11
D -7-7-7-7--6-6-6-6--5-5--4-4-4-4--3-3-3-3--2-2---2-2-22-22-2-22
A -5-5-5-5--4-4-4-4--3-3--2-2-2-2--1-1-1-1--0-0---2-2-22-22-2-22
E --------------------------------------------------------------

Background Riff after chorus is played thru

E --------------------------------------------------------------
B -3-3-2-3-3-2-2-3-2-----3-3-2-3-3-2-2-3-2-0--------------------
G --------------------------------------------------------------

There's another riff really quiet in the background after the first verse &
chorus, but it's fairly quiet and I'm really busy so it'll take me for ever
to work it out.  If i do I'll post it but besides I'm only a hack, really,
but I enjoy it, so...
--------------------------------------------------------------------------
Dean Kielpinski
trystero@senet.com.au
     
Добавлено: 18.10.2013
Другие материалы по этой песне:
  • Аккорды и текст

Страница создана 18.10.2013
http://primanota.ru/howlin-maggie/alcohol-chords.htm
Привет, Гость.
Предлагаем пройти революционный курс по гитаре.
Подарок от PrimaNota.Ru, забирай!