PrimaNota.ru - самый крупный в мире бесплатный архив песенных текстов, аккордов, табулатур и нот


Howler - I Told You Once - аккорды и текст, видео

Регистрация Запомнить меня
Войти через:  Facebook Google Twitter Vk Yandex Mail.ru

Howler - I Told You Once - аккорды и текст, видео

Печатать
Просмотров: 205
I Told You Once
Howler
I Told You Once
Howler
~~~~~~~~~~~~~~~~~~~~~~~~~~~~~~~~~~~~~~
( )* Optional note

     Bb   Gm   Cm   Dm   F   D#
e|---1----3----3----5----8----6-------|
B|---3----3----4----6----10---8-------|
G|---3----3----5----7----10---8-------|
D|---3----5----5----7----10---8-------|
A|---1----5----3----5----8----6-------|
E|---1----3----3----5----8----6-------|


[Intro]
Bb Gm x4

[Verse]
       Bb                   Gm    Bb    Gm
Well I wouldn't have it any other way
     Cm                       (Dm)    Bb     Gm
Your body's fine but your mind is not ok
       Bb               Gm    Bb        Gm 
Well I think about some other day
   Cm               (Dm)       Bb       Gm 
My only wish is that you would stay
      Bb                      Gm       Bb       Gm 
And I wish there was something I could do
         Cm                  (Dm)     Bb     Gm      
'Cause I hate myself more than I hate you


[Chorus] 
      F
And I told you once
         F 
And I'll tell you twice
         D#                            Bb
There is nothing in this world I would sacrifice
      F
And I can't be real
      F
And I can't be nice
         D#                            Bb
There is nothing in this world I would sacrifice


[Intro]  

[Verse 2]
    Bb                       Gm    Bb        Gm 
Sometimes my mind feels like an ashtray
        Cm                   Gm      Bb       Gm
But I'm blinded by the smoke and the grey
       Bb                      Gm Bb        Gm
That's just the price you have to pay
          Cm                       (Dm)  Bb        Gm 
Feel like ships are gone but I feel fine today
      Bb                       Gm      Bb        Gm
And I wish there was somehting I could do
         Cm                   (Dm)    Bb 
'Cause I hate myself more than I hate you
 
[Solo]

e|-------------------------------------------------------------|
B|-------------------------------------------------------------|
G|-------------------------------------------------------------|\
D|-3-3---3-3---3-3---5-5----3-3-----3-3----3-3-----------------| \
A|----5-5---5-5---5-5---5-5-----5-5-----5-5----5-5-3-3-5-5-----|  \
E|-------------------------------------------------------------|   \
                                                                   x3
e|-------------------------------------------------------------|   /
B|-------------------------------------------------------------|  /
G|-3-3---3-3----3---3-5-3---3----------------------------------| /
D|----5-5---5-5---5-------5---5--3-3---3-3----3--------3---3---|/
A|----------------------------------5-5---5-5---5-3-5----5---5-|
E|-------------------------------------------------------------|

OR

Bb Gm Bb Gm D# F Bb 


      F   
And I told you once
         F
And I'll tell you twice
         D#                            Bb
There is nothing in this world I would sacrifice
      F
And I can't be real
      F
And I can't be nice
         D#                            Bb
There is nothing in this world I would sacrifice

End on Bb


Pretty simple but a nice catchy tune to play to
Enjoy :P -Xl
Добавлено: 20.07.2013
Другие материалы по этой песне:
  • Аккорды и текст

Страница создана 20.07.2013
http://primanota.ru/howler/i-told-you-once-chords.htm
Привет, Гость.
Предлагаем пройти революционный курс по гитаре.
Подарок от PrimaNota.Ru, забирай!