PrimaNota.ru - самый крупный в мире бесплатный архив песенных текстов, аккордов, табулатур и нот


Howler - Beach Sluts - аккорды и текст, видео

Регистрация Запомнить меня
Войти через:  Facebook Google Twitter Vk Yandex Mail.ru

Howler - Beach Sluts - аккорды и текст, видео

Печатать
Просмотров: 93
Beach Sluts
Howler
-------------------------------------------------------------------------------
                             Beach Sluts by Howler 
-------------------------------------------------------------------------------

http://www.youtube.com/watch?
v=LX108dHwDMw&context=C4c42440ADvjVQa1PpcFPoBSUskr_NxPzBjxwimnBAHLLPaV-RMdM= 


Tabbed by: BarneyDD
Email:barneydudleydenwood@yahoo.com

Tuning: Standard


  RIFF 1

e|---------------------------------------------------------------------------|
B|-1-3/5\3-1-0---------------------------------------------------------------|
G|---------------------------------------------------------------------------|
D|---------------------------------------------------------------------------|
A|---------------------------------------------------------------------------|
E|---------------------------------------------------------------------------|

  RIFF 2 

e|---------------------------------------------------------------------------|
B|-5-8-5---5-----------------------------------------------------------------|
G|-------7---7---------------------------------------------------------------|
D|---------------------------------------------------------------------------|
A|---------------------------------------------------------------------------|
E|---------------------------------------------------------------------------|



  CHORDS

C             F         Gadd9

e|-0------|   -1---|    -5--|
B|-1------|   -1---|    -3--|
G|-0------|   -2---|    -4--|
D|-2------|   -3---|    -5--|
A|-3------|   -----|    ----|
E|--------|   -----|    ----|

Cadd9         Dm        G

e|-0------|   -1--|     -3--|
B|-3------|   -3--|     -3--|
G|-0------|   -2--|     -4--|
D|-2------|   -3--|     -5--|
A|-3------|   ----|     ----|
E|--------|   ----|     ----|

Am            Em

e|-0------|   -3--|
B|-1------|   -5--|
G|-2------|   -4--|
D|-2------|   -5--|
A|-0------|   ----|
E|--------|   ----|    




INTRO x2

C-Cadd9-Am RIFF 1

F-Dm-Em RIFF 2




VERSE


C    Cadd9         Am    RIFF 1
I   don't   even  try   any more, cause i'm 
 F           Dm       Em   RIFF 2
afraid  and  i'm  too shy, ------
   C     Cadd9       Am       RIFF 1
I feel  just  like  a ghost, haunting houses, riding 
 F  Dm          Em     RIFF 2
on  the  other  coast. ------



CHORUS

C         Cadd9       Am 
I feel the same as i did last night,
F            Dm             Em   Gadd9-G-Em-G
Lost all my sense, but i'll be alright,
C                Cadd9    Am 
And i'm not the same as i used to feel,
F              Dm             Em      Gadd9-G-Em-G
She's stole my soul now it's plain to see.
C         Cadd9  Am        F               Dm    Em
That  i'm  so  lonely, i can't wait for anyone else,
C         Cadd9  Am        F               Dm      Em
And i'm    so   lazy, i won't believe in anything else.


Fm               Gm       C
But i don't wanna waste your time,
C               F        Em     
Feeling like i did last night,
Fm              Gm   C 
Drinking in the afternoon,
C                   F         Em 
No i don't want to waste your time. 


Repeat from intro


Then go to outro, 

Alternating between Fm and Gm



************************************

| /   slide up
| \   slide down
| h   hammer-on
| p   pull-off
| ~   vibrato
| +   harmonic
| x   Mute note
| b   Bend
| pb  Pre-bend
| br  Bend release
| pbr Pre-bend release
| brb Bend release bend

************************************
Добавлено: 24.06.2013
Другие материалы по этой песне:
  • Аккорды и текст

Страница создана 24.06.2013
http://primanota.ru/howler/beach-sluts-chords.htm
Привет, Гость.
Предлагаем пройти революционный курс по гитаре.
Подарок от PrimaNota.Ru, забирай!