PrimaNota.ru - самый крупный в мире бесплатный архив песенных текстов, аккордов, табулатур и нот


Howie Day - Babylon - таба, видео

Регистрация Запомнить меня
Войти через:  Facebook Google Twitter Vk Yandex Mail.ru

Howie Day - Babylon - таба, видео

Печатать
Просмотров: 90
Babylon - by David Gray ^Ö as played by Howie Day ^Ö as transcribed by
Hank Oppenheimer
 

This is a different version than what appears on the album, but I^Òve
been fiddling with it for a while and it is easier and sounds better when
playing alone acoustically.  I have a version of Howie Day playing it and
I think this is how he does it. 

 

CAPO ON FIRST FRET ^Ö ALL FRET SPACES ARE GIVEN RELATIVE TO
                          THE CAPO

 

Here^Òs that lick that goes throughout the song:

 

--0------------0-------------------------------------------

--1-0h1h0h1----1-0h1h0h1-----------------------------------

--0------------2-------------------------------------------

--2------------3-------------------------------------------

--3------------0-------------------------------------------

--0------------0-------------------------------------------

 

The chorus just goes:

 

If you want it   come and get it   for cryin^Ò out loud

-----0---------3--------------0------------0---0---------

-----1---------3--------------0------------1---0---------

-----0---------0--------------0------------2---2---------

-----2---------0--------------2------------3---3---------

-----3---------2--------------2------------0---0---------

-----0---------3--------------0------------0---0---------

 

It^Òs just a slightly different style on a really great song.

 

Any comments/amendments/changes are certainly welcome.

 

             Keep smiling ---------- Hank (hank014@hotmail.com)


________________________________________________________________________________
     
Добавлено: 14.07.2013
Другие материалы по этой песне:
  • Аккорды и текст

Страница создана 14.07.2013
http://primanota.ru/howie-day/babylon-chords.htm
Привет, Гость.
Предлагаем пройти революционный курс по гитаре.
Подарок от PrimaNota.Ru, забирай!