PrimaNota.ru - самый крупный в мире бесплатный архив песенных текстов, аккордов, табулатур и нот


Howie Beck - Reptilia - таба, видео

Регистрация Запомнить меня
Войти через:  Facebook Google Twitter Vk Yandex Mail.ru

Howie Beck - Reptilia - таба, видео

Печатать
Просмотров: 100
Уроки эстрадного вокала в Санкт-Петербурге
-------------------------------------------------------------------------------
                             REPTILIA - Howie Beck 
-------------------------------------------------------------------------------


VERSE (strumming)

    Bmadd11*        E7 
e|--0---------------0----|
B|--3---------------0----|
G|--4---------------1----|
D|--4---------------0----|
A|--2---------------2----|
E|------------------0----|

* played as a barred Bm two times before Prechorus


PRECHORUS

e|--------------------------------------------------|
B|--------------------------------------------------|
G|----7-----2-----4-----6-----4-----6-----2-----7---|
D|---0-----0-----0-----0-----0-----0-----0-----0-0--|
A|--------------------------------------------------|
E|--7-7-0h2-2-0h3-3-0h5-5-0h3-3-3/5-5-0h2-2-2/7-7---|


CHORUS

e|--------------------------------------------------|
B|--------------------------------------------------|
G|----7-----2-----4-----6-----4-----6---11--9--7--6-|
D|---0-----0-----0-----0-----0-----0-0----0--0--0--0|
A|--------------------------------------------------|
E|--7-7-0h2-2-0h3-3-0h5-5-0h3-3-3/5-5---10--9--7--5-| 
Добавлено: 20.12.2015
Другие материалы по этой песне:
  • Аккорды и текст

Страница создана 20.12.2015
http://primanota.ru/howie-beck/reptilia-chords.htm
Привет, Гость.
Предлагаем пройти революционный курс по гитаре.
Подарок от PrimaNota.Ru, забирай!