PrimaNota.ru - самый крупный в мире бесплатный архив песенных текстов, аккордов, табулатур и нот


Howard Shore - The Prophecy - таба, видео

Регистрация Запомнить меня
Войти через:  Facebook Google Twitter Vk Yandex Mail.ru

Howard Shore - The Prophecy - таба, видео

Печатать
Просмотров: 230
Уроки эстрадного вокала в Санкт-Петербурге
As recorded by Howard Shore
(From the 2001 Album THE LORD OF THE RINGS-THE FELLOWSHIP OF THE RING)

Transcribed by an unregistered user
        

Words by Philippa Boyens Music by Howard Shore

Gtr I (B E A D G B E) - 'String Ensemble 1'
Gtr II (E A D G B E) - 'String Ensemble 2'

 Intro
  slowly,darkly Q=60
  Am/C                      F/D                     Am
 4/4
  Gtr I
  <
  W          W               W                        W
|----------|--------------|-----------------------|---------------------------|
|-1--------|-1------------|--1--------------------|---1-----------------------|
|-2--------|-2------------|--2--------------------|---2-----------------------|
|-2--------|-2------------|--3--------------------|---------------------------|
|-3--------|-3------------|--5--------------------|---------------------------|
|----------|--------------|-----------------------|---------------------------|
|----------|--------------|-----------------------|---------------------------|
|
| Gtr II
| <
| W          H    Q.    E    E  E  E  E  E  E  Q     +E   S  S  Q   +Q   E  E
|-5--------|--------------|-------------------12--|-(12)-13-12----------------|
|----------|--------------|----------12-13-15-----|------------15--(15)-------|
|----------|-5----9----12-|-14----14--------------|---------------------------|
|----------|--------------|----14-----------------|------------------------14-|
|----------|-3----7----10-|-12--------------------|-(12)----------------------|
|----------|--------------|-----------------------|---------------------------|
                             W                       +W


                            Verse 1
  F/D                        Amadd4/E
   W                           W
|--------------------------|------------------------|
|--1-----------------------|---3--------------------|
|--2-----------------------|---5--------------------|
|--3-----------------------|---7--------------------|
|--5-----------------------|---7--------------------|
|--------------------------|------------------------|
|--------------------------|------------------------|
|
|  E  E  Q   +E   S  S  Q      Q   E  E  E  E  E  E
|--------------------------|------------------------|
|----12-13--(13)-12--------|---------------12-13-15-|
|-14----------------14-13--|--14--------14----------|
|--------------------------|---------14-------------|
|-12-----------------------|-(12)-------------------|
|--------------------------|------------------------|
   W                          +W


  Amadd4/F               Amadd4/E
   W                      W
|----------------------|----------------------|
|--3-------------------|--3-------------------|
|--5-------------------|--5-------------------|
|--7-------------------|--7-------------------|
|--8-------------------|--7-------------------|
|----------------------|----------------------|
|----------------------|----------------------|
|
|  Q.    S  S  Q.    E    Q.    S  S  Q   Q
|-12-------------------|----------------------|
|-------15-13-12----13-|-15----13-12----------|
|----------------------|-------------14--12---|
|----------------------|----------------------|
|----------------------|----------------------|
|----------------------|----------------------|


               F                 Am
   <
   W           Q     H     E E    H.         E E
|------------|-----------------|-----------------|
|--3---------|-0-----1-------3-|-^5--------------|
|--5---------|-2-----2-----2---|-^5--------------|
|--7---------|-3-----3-----3---|-^7--------------|
|--5----5----|-----------------|-^7------------7-|
|------------|-----------------|-----------------|
|------------|-----------------|-----------------|
|  H    H
|
|  W           E  E  H.           E  E H.
|------------|-----------------|-------8---------|
|------------|------10---------|-----------------|
|-14---------|-----------------|-----9-----------|
|------------|---10------------|--7--------------|
|-12---------|-8---------------|-----------------|
|------------|-----------------|-----------------|
               W                  W


  F                        Am
  H          +Q.     S S   W
|------------------------|--------------------|
|------------------------|--------------------|
|------------------------|--------------------|
|-3----------(3)-----5-3-|-2-------------2----|
|-3--------------3-------|-3----2-3--5--------|
|-4-----------4----------|--------------------|
|------------------------|--------------------|
| H           E  Q.        Q    E E  Q   Q
|
| E E  E  E  +H            E Q.     +H
|------------------------|---5------(5)-------|
|------------------------|--------------------|
|--------10-(10)---------|--------------------|
|---6-10-----------------|-7------------------|
|-8----------------------|--------------------|
|------------------------|--------------------|
  W                        W


  A/F# A5                                     G#         Am/C      A
               3/4                           2/4        3/4
  <
  H    +H       H.         E  E +E  E S S E    +Q   Q    H.        H.
|-------------|---------|-------------------|----------|---------|-------|
|-------------|---------|-------------------|----------|---------|-------|
|-------------|---------|-------------------|----------|-2-------|-------|
|-2----(2)----|-2-------|-------------------|-------6--|-2-------|-2-----|
|-------------|---------|--6--7-(7)-6-7-6-4-|-^(4)-----|-3-------|-4-----|
|-4-----5-----|-5-------|-(5)---------------|-^-4------|---------|-5-----|
|-------------|---------|-------------------|----------|---------|-------|
| H     H       H.        +H.                   H
|
| <
| H     H       H.        +H.                   H        H.        H.
|-------------|---------|-------------------|----------|-5-------|-------|
|-5-----5-----|---------|-------------------|----------|-5-------|-5-----|
|-6-----5-----|-9-------|-(9)---------------|----------|-5-------|-6-----|
|-6-----7-----|-7-------|-(7)---------------|-^-3------|---------|-------|
|-------------|---------|-------------------|-^-4------|---------|-------|
|-------------|---------|-------------------|----------|---------|-------|


  C#madd9                        F#add9     F#madF#add9
                                           4/4
                                  <
  H.         H.        H.         H.        H    H
|---------|----------|---------|----------|-----------||
|---------|----------|---------|----------|-----------||
|---------|----------|---------|----------|-1----2----||
|---------|----------|-2-------|--4-------|-4----4----||
|---------|--6-------|-6-------|-(6)------|-6----6----||
|-9-------|-(9)------|-9-------|-(9)------|-9----9----||
|---------|----------|---------|----------|-----------||
|
|                                 <
| H.        +H.        H.        +H.        H    H
|-4-------|-(4)------|-4-------|-(4)------|-4----4----||
|---------|----------|---------|----------|-----------||
|-6-------|-(6)------|-6-------|-(6)------|-6----6----||
|---------|----------|---------|----------|-----------||
|---------|----------|---------|----------|-----------||
|---------|----------|---------|----------|-----------||


 Break, 2nd Verse
  Brightly Q=168
  Dm                          Gmadd9
   W           +H.       Q     W           +W
|-----------|---------------|-----------|-------------|
|-----------|---------------|-----------|-------------|
|--2--------|--(2)-------2--|--3--------|--(3)--------|
|--3--------|--(3)-------3--|--7--------|--(7)--------|
|--7--------|--(7)-------7--|-10--------|-(10)--------|
|-10--------|-(10)------10--|-10--------|-(10)--------|
|-----------|---------------|-----------|-------------|
|
|  W            W              W            W
|-----------|---------------|-----------|-------------|
|-----------|---------------|-----------|-------------|
|-----------|---------------|-----------|-------------|
|-----------|---------------|-----------|-------------|
|-----------|---------------|-----------|-------------|
|-----------|---------------|-----------|-------------|


  Dm                          Dmadd4
   W           +H.       Q     W           +W
|-----------|---------------|-----------|---------|
|-----------|---------------|-----------|---------|
|--2--------|--(2)-------2--|--0--------|--(0)----|
|--3--------|--(3)-------3--|--3--------|--(3)----|
|--7--------|--(7)-------7--|--7--------|--(7)----|
|-10--------|-(10)------10--|-10--------|---------|
|-----------|---------------|-----------|---------|
|
|  W            W              W           +W
|-----------|---------------|-----------|---------|
|-----------|---------------|-11--------|-(11)----|
|-----------|---------------|-12--------|-(12)----|
|-----------|---------------|-----------|---------|
|-----------|---------------|-----------|---------|
|-----------|---------------|-----------|---------|


  Dm                          Gmadd9
   W           +H.       Q     W           +W
|-----------|---------------|-----------|-------------|
|-----------|---------------|-----------|-------------|
|--2--------|--(2)-------2--|--3--------|--(3)--------|
|--3--------|--(3)-------3--|--7--------|--(7)--------|
|--7--------|--(7)-------7--|-10--------|-(10)--------|
|-10--------|-(10)------10--|-10--------|-(10)--------|
|-----------|---------------|-----------|-------------|
|
|  W            W              W           +W
|-----------|---------------|-----------|-------------|
|-----------|---------------|--3--------|--(3)--------|
|-----------|---------------|-----------|-------------|
|-----------|---------------|--0--------|--(0)--------|
|-----------|---------------|-----------|-------------|
|-----------|---------------|-----------|-------------|


  Dmadd9                      Gmadd9
   W           +H.       Q     W           +W
|-----------|---------------|-----------|---------|
|-----------|---------------|--3--------|--(3)----|
|--7--------|--(7)-------7--|--3--------|--(3)----|
|--7--------|--(7)-------7--|--7--------|--(7)----|
|--8--------|--(8)-------8--|-10--------|-(10)----|
|-12--------|-(12)------12--|-----------|---------|
|-----------|---------------|-----------|---------|
|
|  W           +W              W           +W
|-----------|---------------|-----------|---------|
|--3--------|--(3)----------|--3--------|--(3)----|
|-----------|---------------|-----------|---------|
|--0--------|--(0)----------|--0--------|--(0)----|
|-----------|---------------|-----------|---------|
|-----------|---------------|-----------|---------|


  Dmadd9                      D#maj7/A
   W           +H.       Q     W           +W
|-----------|---------------|-----------|-------------|
|--6--------|--(6)-------6--|--8--------|--(8)--------|
|--9--------|--(9)-------9--|--7--------|--(7)--------|
|-12--------|-(12)------12--|--8--------|--(8)--------|
|-12--------|-(12)------12--|-12--------|-(12)--------|
|-----------|---------------|-----------|-------------|
|-----------|---------------|-----------|-------------|
|
|  W           +W              W           +W
|-----------|---------------|-----------|-------------|
|--3--------|--(3)----------|--3--------|--(3)--------|
|-----------|---------------|-----------|-------------|
|--0--------|--(0)----------|--0--------|--(0)--------|
|-----------|---------------|-----------|-------------|
|-----------|---------------|-----------|-------------|


  Dmadd9                      Dsus2+5
   W           +H.       Q     W           +W
|-----------|---------------|-----------|---------|
|--6--------|--(6)-------6--|--5--------|--(5)----|
|--9--------|--(9)-------9--|--7--------|--(7)----|
|-12--------|-(12)------12--|--8--------|--(8)----|
|-12--------|-(12)------12--|-12--------|-(12)----|
|-----------|---------------|-----------|---------|
|-----------|---------------|-----------|---------|
|
|  W           +W              W           +W
|-----------|---------------|-----------|---------|
|--3--------|--(3)----------|--3--------|--(3)----|
|-----------|---------------|-----------|---------|
|--0--------|--(0)----------|--0--------|--(0)----|
|-----------|---------------|-----------|---------|
|-----------|---------------|-----------|---------|


  Dmadd9                      D#maj7/A
   W           +H.       Q     W              +H.         Q
|-----------|---------------|--------------|-----------------|
|--6--------|--(6)-------6--|--8-----------|--(8)---------8--|
|--9--------|--(9)-------9--|--7-----------|--(7)---------7--|
|-12--------|-(12)------12--|--8-----------|--(8)---------8--|
|-12--------|-(12)------12--|-12-----------|-(12)--------12--|
|-----------|---------------|--------------|-----------------|
|-----------|---------------|--------------|-----------------|
|
|  <
|  W           +W              Q  Q  Q  Q      Q   Q  Q   Q
|-----------|---------------|--------------|-----------------|
|--3--------|--(3)----------|-----3-----3--|-------3------3--|
|-----------|---------------|--2-----2-----|---2------2------|
|--0--------|--(0)----------|--0-----------|--(0)------------|
|-----------|---------------|--------------|-----------------|
|-----------|---------------|--------------|-----------------|
                               W              +W


  Dmadd9
   H      H        W            +W            +W
|--5------5-----|--5---------|--(5)--------|--(5)----||
|--6------6-----|--6---------|--(6)--------|--(6)----||
|--9------9-----|--9---------|--(9)--------|--(9)----||
|-12-----12-----|-12---------|-(12)--------|-(12)----||
|---------------|------------|-------------|---------||
|---------------|------------|-------------|---------||
|---------------|------------|-------------|---------||
|
|  Q  Q  +H       +W            +W            +W
|---------------|------------|-------------|---------||
|-----3--(3)----|-(3)--------|--(3)--------|--(3)----||
|--2------------|------------|-------------|---------||
|--0------------|-(0)--------|--(0)--------|--(0)----||
|---------------|------------|-------------|---------||
|---------------|------------|-------------|---------||
   W                            +W


 Outro
  Moderately slow Q=60
  F               F#m           Bm              Eadd6    E    Fm
          |-3-|                         |-3-|
  H.      E E E   Q  Q  Q  Q    H.      E E E   Q  Q  Q  Q    W
|---------------|-------------|---------------|-------------|------|
|-6-------------|-------------|---------------|-2--------0--|------|
|---------------|-------------|-------------3-|----1--------|-1----|
|-3-----------3-|-4--------2--|-----------3---|-2-----2-----|-3----|
|---------1-4---|-4--4--0-----|-4-------4-----|-------------|-3----|
|---------------|-5-----------|-6-------------|-------------|------|
|---------------|-------------|---------------|-------------|------|
|                 W                             W
|
| W               W             W               W             W
|-1-------------|-2-----------|-1-------------|-9-----------|-4----|
|-2-------------|-------------|-2-------------|-9-----------|-6----|
|-3-------------|-------------|---------------|-9-----------|------|
|---------------|-------------|---------------|-------------|------|
|---------------|-------------|---------------|-------------|------|
|---------------|-------------|---------------|-------------|------|


  Em           Csus2          Dm         Bbm        Dm
                             3/4
  H    Q  Q    Q   H     Q     H.         H.        H.
|------------|--------------|----------|-^1-------|-------|
|------------|-----------3--|-^3-------|-^2-------|-3-----|
|------------|-0---3--------|-^2-------|-^3-------|-2-----|
|------4--5--|-0------------|-^3-------|-^3-------|-3-----|
|-7----------|-1------------|-^5-------|----------|-5-----|
|------------|--------------|----------|----------|-------|
|------------|--------------|----------|----------|-------|
| W            W
|
| W            E E H.          H.         H.        H.
|-7----------|-----3--------|-^5-------|----------|-5-----|
|-8----------|---3----------|-^6-------|-^6-------|-6-----|
|-9----------|--------------|-^7-------|-^6-------|-7-----|
|------------|-5------------|----------|-^8-------|-------|
|------------|--------------|----------|----------|-------|
|------------|--------------|----------|----------|-------|
               W


  Bbm       D         Bbm       B   F#m        Cm
  H.        H.        H     +E  E   H     Q    H.
|-6-------|---------|-1-----(1)---|-5--------|-------|
|-6-------|-3-------|-2-----(2)-3-|-7--------|-1-----|
|-6-------|-2-------|-3-----(3)---|-6-----6--|-0-----|
|-8-------|-3-------|-3-----(3)---|-7--------|-1-----|
|---------|-5-------|-------------|----------|-3-----|
|---------|---------|-------------|----------|-------|
|---------|---------|-------------|----------|-------|
|
| H.        H.        H.            H     Q    H.
|---------|-5-------|-------------|----------|-3-----|
|-6-------|-6-------|-6-----------|-2-----2--|-4-----|
|-6-------|-7-------|-6-----------|-2--------|-5-----|
|-8-------|---------|-8-----------|-4--------|-------|
|---------|---------|-------------|----------|-------|
|---------|---------|-------------|----------|-------|
                                    H.


  F#m               C
  H.                 H.
|-5---------------|---------------|
|-7---------------|--5------------|
|-6---------------|--5------------|
|-7---------------|--5------------|
|-----------------|---------------|
|-----------------|---------------|
|-----------------|---------------|
|
| E   E  E E +Q      E  E E E  Q
|----------9-(9)--|---------8-12--|
|-------10--------|-------8-------|
|----11-----------|-----9---------|
|-----------------|-10------------|
|-9---------------|---------------|
|-----------------|---------------|
  H.                 H.


  F#m               C               F#m
  H.                H.              H.
|-5---------------|---------------|-----------------|
|-7---------------|---------------|-----------------|
|-6---------------|---------------|-----------------|
|-7---------------|-2-------------|-2---------------|
|-----------------|-3--------3----|-4---------------|
|-----------------|-3-----3----3--|-4------0-4-(4)--|
|-----------------|---------------|-----------------|
|                   Q     E  E Q    Q      E E +Q
|
| E   E  E E +Q     E  E +H         E   E  H
|----------9-(9)--|---------------|-----------------|
|-------10--------|----5-(5)------|-------10--------|
|----11-----------|---------------|----11-----------|
|-----------------|---------------|-----------------|
|-9---------------|-3-------------|-9---------------|
|-----------------|---------------|-----------------|
  H.                H.              H.


  Bbm/F      F#m               D/F                 F#m/A      D/F#
  H     Q    H.                H.                  H     Q    H.
|----------|-----------------|-------------------|----------|-------|
|----------|-----------------|-3-----------------|----------|-------|
|-------3--|-2---------------|-2-----------------|-2--------|-------|
|-3-----3--|-2---------------|-4-----------------|-4-----4--|-0-----|
|-4--------|-4---------------|-5-----------------|-4--------|-0-----|
|-6--------|-4---------------|-------------------|-5--------|-2-----|
|-6--------|-----------------|-------------------|----------|-------|
|
| H.         E   E  E E +Q     E   E  E  E  +Q     H.         H.
|----------|----------9-(9)--|----------10-(10)--|----------|-------|
|----------|-------10--------|-------10----------|----------|-------|
|----------|----11-----------|----11-------------|----------|-------|
|----------|-----------------|-------------------|----------|-------|
|-4--------|-9---------------|-9-----------------|-9--------|-5-----|
|----------|-----------------|-------------------|----------|-------|
             H.                H.


                                        F
 4/4
                               |-3-|
  S S E +Q   Q.   S S    H     Q Q Q     H    Q.   E    W
|---------------------|---------------|--------------|--------*|
|---------------------|---------------|--1----0------|--------*|
|------------2--------|------------2--|--2---------0-|--2-----*|
|-0-2-4-(4)-------4-2-|--0-----0-4----|--3-----------|-(3)----*|
|-0-------------------|-(0)-----------|--3-----------|-(3)----*|
|-2-------------------|-(2)-----------|--------------|--------*|
|---------------------|---------------|--------------|--------*|
| W                     +W               W
|
| W                     +W               W             +W
|---------------------|---------------|-^5-----------|-(5)----*|
|-3-------------------|-(3)-----------|--------------|--------*|
|---------------------|---------------|-^5-----------|-(5)----*|
|-0-------------------|-(0)-----------|-^3-----------|-(3)----*|
|---------------------|---------------|--------------|--------*|
|---------------------|---------------|--------------|--------*|



Duration Legend
---------------
W - whole; H - half; Q - quarter; E - 8th; S - 16th; T - 32nd; X - 64th; a - acciaccatura
+ - note tied to previous; . - note dotted; .. - note double dotted
Uncapitalized letters represent notes that are staccato (1/2 duration)
Irregular groupings are notated above the duration line
Duration letters will always appear directly above the note/fret number it represents the
duration for.  Duration letters with no fret number below them represent rests.  Multi-
bar rests are notated in the form Wxn, where n is the number of bars to rest for.  Low
melody durations appear below the staff

Tablature Legend
----------------
 h   - hammer-on
 p   - pull-off
 b   - bend
 pb  - pre-bend
 r   - bend release (if no number after the r, then release immediately)
 /\  - slide into or out of (from/to "nowhere")
 s   - legato slide
 S   - shift slide
 - natural harmonic
[n]  - artificial harmonic
n(n) - tapped harmonic
 ~   - vibrato
 tr  - trill
 T   - tap
 TP  - trem. picking
 PM  - palm muting
\n/  - tremolo bar dip; n = amount to dip
 \n  - tremolo bar down
 n/  - tremolo bar up
/n\  - tremolo bar inverted dip
 =   - hold bend; also acts as connecting device for hammers/pulls
 <> - volume swell (louder/softer)
 x   - on rhythm slash represents muted slash
 o   - on rhythm slash represents single note slash

Misc Legend
-----------
 |  - bar
||  - double bar
||o - repeat start
o|| - repeat end
*|  - double bar (ending)
 :  - bar (freetime)
 $  - Segno
 &  - Coda
Tempo markers -  = BPM(8/16=s8/s16), where s8 = swing 8ths, s16 = swing 16ths

Добавлено: 30.07.2012
Другие материалы по этой песне:
  • Аккорды и текст

Страница создана 30.07.2012
http://primanota.ru/howard-shore/the-prophecy-chords.htm
Привет, Гость.
Предлагаем пройти революционный курс по гитаре.
Подарок от PrimaNota.Ru, забирай!