PrimaNota.ru - самый крупный в мире бесплатный архив песенных текстов, аккордов, табулатур и нот


Howard Shore - The Shire - таба, видео

Регистрация Запомнить меня
Войти через:  Facebook Google Twitter Vk Yandex Mail.ru

Howard Shore - The Shire - таба, видео

Печатать
Просмотров: 1175
-----------------------------------------------------------------------
The Shire – The Lord of the Rings/Howard Shore
-----------------------------------------------------------------------
Tabbed by: metalpunkk3
Email: Don't email me

Tuning: Normal

This song is best played with high distortion, but with the reverb (if you have it) 
all the way up and the tone turned all the way down. That way it rings out better.
Also, I am tabbing in the 12th position for simplicities sake. However, it sounds better 
the 19th position.
In addition, if you know this song, you should know when to pause and such. Thanks!

This is a song I sort of felt my way thru, by accident.

e|-------------------------------------------12---15-14---------------|
B|--------12--15------12---------------12h15-----------15-12----h13p12|
G|-12h14-------------------14--12-(12)--------------------------------|
D|--------------------------------------------------------------------|
A|--------------------------------------------------------------------|
E|--------------------------------------------------------------------|

e|--------------------------------------------------------------------|
B|--------------12--15------12----------------------------------------|
G|-h14---12h14--------------------14----12----------------------------|
D|--------------------------------------------------------------------|
A|--------------------------------------------------------------------|
E|--------------------------------------------------------------------|
Then repeat as many times as you want

Play in the 19th pos. for more ‘flutelike' sound.

| /  slide up
| \  slide down
| h  hammer-on
| p  pull-off
| ~  vibrato
| +  harmonic
| x  Mute note
=======================================================================
Добавлено: 15.07.2012
Другие материалы по этой песне:
  • Аккорды и текст

Страница создана 12.06.2012
http://primanota.ru/howard-shore/shire-chords.htm
Привет, Гость.
Предлагаем пройти революционный курс по гитаре.
Подарок от PrimaNota.Ru, забирай!