PrimaNota.ru - самый крупный в мире бесплатный архив песенных текстов, аккордов, табулатур и нот


How To Destroy Angels - How Long - таба, видео

Регистрация Запомнить меня
Войти через:  Facebook Google Twitter Vk Yandex Mail.ru

How To Destroy Angels - How Long - таба, видео

Печатать
Просмотров: 81
Song: How Long?
Artist: How to Destroy Angels
Album: Welcome Oblivion
Tuning: Drop B


Intro
|-----------------------------------------------------| 
|-----------------------------------------------------|
|-5~--------------------------------------------------|
|-3~----------0~--------------------------------------| 
|-3~----------0~--------------------------------------|
|-3~----------0~--------------------------------------|



Verse
2x
|---------------------------------------------------------| 
|---------------------------------------------------------|
|---------------------------------------------------------|
|---------------------------------------------------------| 
|---------------------------------------------------------|
|-0-0---0---0------x-------0-0---0---0------x-------------|

“…like yesterday.”
|---------------------------------------------------------| 
|---------------------------------------------------------|
|------------/5-5-5-5---5-5--------------/5-5-5-5---5-7---|
|---------------------------------------------------------| 
|-3-3---3---3/----------------3-3---3---3/----------------|
|---------------------------------------------------------|

|---------------------------------------------------------| 
|---------------------------------------------------------|
|---------------------------------------------------------|
|------------/5-5-5-5---5-5--------------/5-5-5-5---5-3---| 
|---------------------------------------------------------|
|-5-5---5---5/----------------5-5---5---5/----------------|

|---------------------------------------------------------| 
|---------------------------------------------------------|
|------------/7-7-7-7---7-7--------------/7-7-7-7---7-5---|
|---------------------------------------------------------| 
|-5-5---5---5/----------------5-5---5---5/----------------|
|---------------------------------------------------------|

|---------------------------------------------------------| 
|---------------------------------------------------------|
|---------------------------------------------------------|
|------------/7-7-7-7---7-7--------------/7-7-7-7---7-10--| 
|-0-0---0---0/----------------0-0---0---0/----------------|
|---------------------------------------------------------|

|---------------------------------------------------------| 
|---------------------------------------------------------|
|------------/5-5-5-5---5-3--------------/5-5-5-5---5-7---|
|---------------------------------------------------------| 
|-3-3---3---3/----------------3-3---3---3/----------------|
|---------------------------------------------------------|

|---------------------------------------------------------| 
|---------------------------------------------------------|
|---------------------------------------------------------|
|------------/5-5-5-5---5-3--------------/5-5-5-5---5-3---| 
|---------------------------------------------------------|
|-5-5---5---5/----------------5-5---5---5/----------------|



Chorus - Chords - 2x
|-----------------------------------------------------| 
|-6~----------5~--------------------------------------|
|-7~----------5~--------------------------------------|
|-7~----------5~--------------------------------------| 
|-5~----------3~--------------------------------------|
|-0~--------------------------------------------------|

|-----------------------------------------------------| 
|-5~----------3~--------------------------------------|
|-5~----------3~--------------------------------------|
|-5~----------3~--------------------------------------| 
|-3~----------1~--------------------------------------|
|-----------------------------------------------------|

|-----------------------------------------------------| 
|-------------1~--------------------------------------|
|-------------2~--5---5---5---5---3---3---2---2-------|
|-5~----5~----3~----------------------------------3---| 
|-3~----3~----3~--------------------------------------|
|-5~----5~----3~--------------------------------------|
                   |-Second time only--------------|    

Synth - 2x
|-10~---------8~--------------------------------------| 
|-----------------------------------------------------|
|-----------------------------------------------------|
|-----------------------------------------------------|
|-----------------------------------------------------|
|-----------------------------------------------------|

|-8~----------6~--------------------------------------| 
|-----------------------------------------------------|
|-----------------------------------------------------|
|-----------------------------------------------------|
|-----------------------------------------------------|
|-----------------------------------------------------|

|-1-----1-----5~--------------------------------------| 
|-----------------------------------------------------|
|-----------------------------------------------------|
|-----------------------------------------------------|
|-----------------------------------------------------|
|-----------------------------------------------------|

Guitar
Second Time (on beat)
|-----------------------------------------------------|
|-----------------------------------------------------|
|-----------------------------------------------------|
|-----------------------------------------------------|
|-5~--5~--5~--5~--5~--5~--5~--5~--5~--5~--5~--5~--5~--|
|-----------------------------------------------------|



Verse II - 2x
|---------------------------------------------------------| 
|---------------------------------------------------------|
|------------/7-7-7-7---7-7--------------/7-7-7-7---7-5---|
|---------------------------------------------------------| 
|-5-5---5---5/----------------5-5---5---5/----------------|
|---------------------------------------------------------|

|---------------------------------------------------------| 
|---------------------------------------------------------|
|---------------------------------------------------------|
|------------/7-7-7-7---7-7--------------/7-7-7-7---7-10--| 
|-0-0---0---0/----------------0-0---0---0/----------------|
|---------------------------------------------------------|

|---------------------------------------------------------| 
|---------------------------------------------------------|
|------------/5-5-5-5---5-3--------------/5-5-5-5---5-7---|
|---------------------------------------------------------| 
|-3-3---3---3/----------------3-3---3---3/----------------|
|---------------------------------------------------------|

|---------------------------------------------------------| 
|---------------------------------------------------------|
|---------------------------------------------------------|
|------------/5-5-5-5---5----------------/5-5-5-5---5-3---| 
|---------------------------------------------------------|
|-5-5---5---5/----------------5-5---5---5/----------------|



Chorus - Chords - 2x
|-----------------------------------------------------| 
|-6~----------5~--------------------------------------|
|-7~----------5~------5-------3-------2---------------|
|-7~----------5~------------------------------5---3---| 
|-5~----------3~--------------------------------------|
|-0~--------------------------------------------------|

|-----------------------------------------------------| 
|-5~----------3~--------------------------------------|
|-5~----------3~--5---5---5---5---3---3---2---2-------|
|-5~----------3~----------------------------------3---| 
|-3~----------1~--------------------------------------|
|-----------------------------------------------------|

|-----------------------------------------------------| 
|-------------1~--------------------------------------|
|-------------2~--5---5---5---5---3---3---2---2-------|
|-5~----5~----3~----------------------------------3---| 
|-3~----3~----3~--------------------------------------|
|-5~----5~----3~--------------------------------------|

Guitar and Synth are the same here.


Outro
2:52
|-----------------------------------------------------| 
|-----------------------------------------------------|
|-5~--------------------------------------------------|
|-3~----------0~--------------------------------------| 
|-3~----------0~--------------------------------------|
|-3~----------0~--------------------------------------|

3:10 - Synth - 2x
|-----------------------------------------------------| 
|-6~----------5~--------------------------------------|
|-7~----------5~--------------------------------------|
|-7~----------5~--------------------------------------| 
|-----------------------------------------------------|
|-----------------------------------------------------|

|-----------------------------------------------------| 
|-5~----------3~--------------------------------------|
|-5~----------3~--------------------------------------|
|-5~----------3~--------------------------------------| 
|-----------------------------------------------------|
|-----------------------------------------------------|

|-----------------------------------------------------| 
|-5~----------3~--------------------------------------|
|-3~----------3~--------------------------------------|
|-3~----------3~--------------------------------------| 
|-----------------------------------------------------|
|-----------------------------------------------------|

Second time only
|-----------------------------------------------------| 
|-3~--------------------------------------------------|
|-3~----------2~--------------------------------------|
|-3~----------0~--------------------------------------| 
|-------------0~--------------------------------------|
|-----------------------------------------------------|

Effects in Outro
3:10                                 3:18
|-/10-----8------------5~------------/17~--\8/20~-----\17~------\\\\-| 
|--------------8---6-------------------------------------------------|
|--------------------------------------------------------------------|
|--------------------------------------------------------------------| 
|--------------------------------------------------------------------|
|--------------------------------------------------------------------|

3:30
|-~17\8/20~----\8~-----/18-17~--\6-5~------/20---17~--\5~------------| 
|--------------------------------------------------------------------|
|--------------------------------------------------------------------|
|--------------------------------------------------------------------| 
|--------------------------------------------------------------------|
|--------------------------------------------------------------------|

Guitar
3:27 (3x)                                                          3:46
|--------------------------------------------------------------|----|
|--------------------------------------------------------------|----|
|--------------------------------------------------------------|----|
|-3---3---3---3---/10--10--10--10--8---8---7---7---5---5---3---|----|
|--------------------------------------------------------------|----|
|--------------------------------------------------------------|-0~-|
Добавлено: 01.11.2013
Другие материалы по этой песне:
  • Аккорды и текст

Страница создана 17.07.2013
http://primanota.ru/how-to-destroy-angels/how-long-chords.htm
Привет, Гость.
Предлагаем пройти революционный курс по гитаре.
Подарок от PrimaNota.Ru, забирай!