PrimaNota.ru - самый крупный в мире бесплатный архив песенных текстов, аккордов, табулатур и нот


Houston Calls - High Rise - текст песни, таба, видео

Регистрация Запомнить меня
Войти через:  Facebook Google Twitter Vk Yandex Mail.ru

Houston Calls - High Rise - текст песни, таба, видео

Печатать
Просмотров: 94
-------------------------------------------------------------------------------
                          High Rise - Houston Calls
-------------------------------------------------------------------------------
Tabbed by: wizard
Email: wizard7926@aol.com

Tuning: Standard

Great song by a great up and coming band.  This should be at least 90% right, comments welcome.

INTRO

Guitar 1 (both times)
e|---------------------------------------------------------------------------|
B|---------------------------------------------------------------------------|
G|---------------------------------------------------------------------------|
D|--6---8------8--10-----8------5--6----8---------55555-77-7-----------------|
A|--6---8------8--10-----8------5--6----8---------55555-88-8------x2---------|
E|--4---6------6--8------6------3--4----6---------33333-55-5-----------------|

Guitar 2 (first time)
e|---------------------------------------------------------------------------|
B|---------------------------------------------------------------------------|
G|---888--88888888---888---88888888--888--88888---88888-77-7-----------------|
D|---888--88888888---888---88888888--888--88888-8-88888-88-8-----------------|
A|---666--66666666---666---66666666--666--66666-8-66666-55-5-----------------|
E|----------------------------------------------6----------------------------|

Guitar 2 (second time)
e|--16-15---------16-15-------18-15~---------------15------------------------|
B|--------18-16~--------18-16----------x3------18~----16~--------------------|
G|---------------------------------------------------------------------------|
D|---------------------------------------------------------------------------|
A|---------------------------------------------------------------------------|
E|---------------------------------------------------------------------------|

VERSE 1 (I'll save this for late night...)

Guitar 1
e|---------------------------------------------------------------------------|
B|---------------------------------------------------------------------------|
G|---8~-----------7~---------------------------------------------------------|
D|---8~-----------8~-----------10~-------------8~----------------------------|
A|---6~-----------5~-----------10~-------------8~---------------x2-----------|
E|-----------------------------8~--------------6~----------------------------|

Guitar 2 (strum around with each chord in between the rings of Guitar 1)
e|---------------------------------------------------------------------------|
B|---------------------------------------------------------------------------|
G|-------8-88-88------7-77-77------------------------------------------------|
D|-------8-88-88------8-88-88-----10-1010-1010-----8-88-88-------------------|
A|-------6-66-66------5-55-55-----10-1010-1010-----8-88-88------x2-----------|
E|--------------------------------8--8-8--8-8------6-66-66-------------------|

PRECHORUS 1 (So this is how...)

Guitar 1 & 2
e|---------------------------------------------------------------------------|
B|---------------------------------------------------------------------------|
G|-------8-------------------------------------------------------------------|
D|-------8-------------------------------------------------------------------|
A|-------6-------------------------------------------------------------------|
E|---------------------------------------------------------------------------|

CHORUS 1 (...I'm running out of time...      ...recounting all the lies..)

Guitar 1 & 2
e|---------------------------------------------------------------------------|
B|---------------------------------------------------------------------------|
G|----------------8---7---5-------------2nd----------------------------------|
D|-------6---8----8---8---5-------------Time:--------6---8-------------------|
A|-------6---8----6---5---3--------------------------6---8-------------------|
E|-------4---6---------------------------------------4---6-------------------|

VERSE 2 (It's not the first time..)

Guitar 1
e|---------------------------------------------------------------------------|
B|---------------------------------------------------------------------------|
G|---8~-----------7~---------------------------------------------------------|
D|---8~-----------8~-----------10~-------------8~----------------------------|
A|---6~-----------5~-----------10~-------------8~---------------x2-----------|
E|-----------------------------8~--------------6~----------------------------|

Guitar 2 (strum around with each chord in between the rings of Guitar 1)
e|---------------------------------------------------------------------------|
B|---------------------------------------------------------------------------|
G|-------8-88-88------7-77-77------------------------------------------------|
D|-------8-88-88------8-88-88-----10-1010-1010-----8-88-88-------------------|
A|-------6-66-66------5-55-55-----10-1010-1010-----8-88-88------x2-----------|
E|--------------------------------8--8-8--8-8------6-66-66-------------------|

PRECHORUS (same as INTRO, then goes back into PRECHORUS 1)

Guitar 1
e|---------------------------------------------------------------------------|
B|---------------------------------------------------------------------------|
G|---------------------------------------------------------------------------|
D|--6---8------8--10-----8------5--6----8------------------------------------|
A|--6---8------8--10-----8------5--6----8------------------------------------|
E|--4---6------6--8------6------3--4----6------------------------------------|

Guitar 2
e|--16-15---------16-15-------18-15~------------16-15---------16-15----------|
B|--------18-16~--------18-16----------x2-------------18-16~--------18-16x---|
G|---------------------------------------------------------------------------|
D|---------------------------------------------------------------------------|
A|---------------------------------------------------------------------------|
E|---------------------------------------------------------------------------|

PRECHORUS cont'd (So this is how...)

Guitar 1 & 2
e|---------------------------------------------------------------------------|
B|---------------------------------------------------------------------------|
G|-------8-------------------------------------------------------------------|
D|-------8-------------------------------------------------------------------|
A|-------6-------------------------------------------------------------------|
E|---------------------------------------------------------------------------|

CHORUS (...I'm running out of time...      ...recounting all the lies..)

Guitar 1 & 2
e|---------------------------------------------------------------------------|
B|---------------------------------------------------------------------------|
G|----------------8---7---5-------------2nd----------------------------------|
D|-------6---8----8---8---5-------------Time:--------6---8-------------------|
A|-------6---8----6---5---3--------------------------6---8-------------------|
E|-------4---6---------------------------------------4---6-------------------|

BRIDGE

Guitar 1 (Guitar 2 slightly differs in variation, but mostly stays the same)
e|---------------------------------------------------------------------------|
B|---------------------------------------------------------------------------|
G|----------88-----88-------88-----------------------------------------------|
D|------66--88-88--88-1010--88-55-5-5-5--------------------------------------|
A|------66--66-88--66-1010--66-55-5-5-5--------x2----------------------------|
E|------44-----66-----8-8------33-3-3-3--------------------------------------|

CHORUS (...I'm running out of time...      ...recounting all the lies..)

Guitar 1 & 2
e|---------------------------------------------------------------------------|
B|---------------------------------------------------------------------------|
G|----------------8---7---5-------------2nd----------------------------------|
D|-------6---8----8---8---5-------------Time:--------6---8-------------------|
A|-------6---8----6---5---3--------------------------6---8-------------------|
E|-------4---6---------------------------------------4---6-------------------|

PRECHORUS (VERY short, then goes right back into CHORUS)

Guitar 1 & 2
e|---------------------------------------------------------------------------|
B|---------------------------------------------------------------------------|
G|-------8-------------------------------------------------------------------|
D|-------8-------------------------------------------------------------------|
A|-------6-------------------------------------------------------------------|
E|---------------------------------------------------------------------------|

CHORUS (...I'm running out of time...      ...recounting all the lies..)

Guitar 1 & 2
e|---------------------------------------------------------------------------|
B|---------------------------------------------------------------------------|
G|----------------8---7---5-------------2nd------------------------8~--------|
D|-------6---8----8---8---5-------------Time:--------6---8---------8~--------|
A|-------6---8----6---5---3--------------------------6---8---------6~--------|
E|-------4---6---------------------------------------4---6-------------------|

OUTRO (same as INTRO)

Guitar 1
e|---------------------------------------------------------------------------|
B|---------------------------------------------------------------------------|
G|---------------------------------------------------------------------------|
D|--6---8------8--10-----8------5--6---8------8--10-----8------5--6~---------|
A|--6---8------8--10-----8------5--6---8------8--10-----8------5--6~---------|
E|--4---6------6--8------6------3--4---6------6--8------6------3--4~---------|

Guitar 2
e|--16-15---------16-15-------18-15~---------------------------15-16~--------|
B|--------18-16~--------18-16----------x4---------------end-on---------------|
G|---------------------------------------------------------------------------|
D|---------------------------------------------------------------------------|
A|---------------------------------------------------------------------------|
E|---------------------------------------------------------------------------|

===============================================================================
Добавлено: 21.05.2012
Другие материалы по этой песне:

Страница создана 01.03.2012
http://primanota.ru/houston-calls/high-rise-chords.htm
Привет, Гость.
Предлагаем пройти революционный курс по гитаре.
Подарок от PrimaNota.Ru, забирай!