PrimaNota.ru - самый крупный в мире бесплатный архив песенных текстов, аккордов, табулатур и нот


Houston Calls - Elephant And Castle - текст песни, таба, видео

Регистрация Запомнить меня
Войти через:  Facebook Google Twitter Vk Yandex Mail.ru

Houston Calls - Elephant And Castle - текст песни, таба, видео

Печатать
Просмотров: 155
-------------------------------------------------------------------------------
			     Elephant and Castle - Houston Calls
-------------------------------------------------------------------------------
Tabbed by:brett4688
Email:

Tuning:drop d (D, A, D, G, B, E)

Hello Everyone,

Well this is my first tab so please cut me some slack. I do feel that this is pretty 
100% correct.
If anyone finds a mistake please let me know! Please Rate Too!!!!! Thank You.

(Rhythm Guitar)

Intro:
e|---------------------------------------------------------------------------|
B|---------------------------------------------------------------------------|
G|-------4444------4444------4444------4444------4444------4444--------------|
D|--------------------------------------------------------------7------------|
A|--4444------4444------2222------2222--------------------------7------------|
D|------------------------------------------7777------7777------7------------|
								p.m.

Verse:
e|-------------|------------|------------|------------|
B|-------------|------------|------------|------------|
G|-6-----------|-4----------|------------|------------|
D|-6-----------|-4----------|-7----------|-7----------|
A|-4-----------|-2----------|-7----------|-7----------|
D|-------------|------------|-7----------|-7----------|
   (motly p.m. easy strumming pattern)


chorus:
e|---------------------------------------------------------------------------|
B|---------------------------------------------------------------------------|
G|-9-------------4----------------6--------------6---------------------------|
D|-9-------------4----------------6-7------------6-7-------------------------|
A|-7-------------2----------------4-7------------4-7-------------------------|
D|----------------------------------7--------------7-------------------------|
	(mostly p.m.)

fill:
e|---------------------------------------------------------------------------|
B|---------------------------------------------------------------------------|
G|---------------------------------------------------------------------------|
D|---------------------------------------------------------------------------|
A|-4-------------6-----------------------------------------------------------|
D|---------------------------------------------------------------------------|

bridge:
e|---------------------------------------------------------------------------|
B|---------------------------------------------------------------------------|
G|-9----------6----------4---------6-----------------------------------------|
D|-9----------6----------4---------6---------7-------------------------------|
A|-7----------4----------2---------4---------7-------------------------------|
D|-------------------------------------------7-------------------------------|
	(mostly p.m.)

End on:
e|------------|
B|------------|
G|-9----------|
D|-9----------|
A|-7----------|
D|------------|

ORDER:
Intro
Verse
Chorus
Fill (one time)
Verse
Chorus
Bridge
Chorus
Добавлено: 21.06.2012
Другие материалы по этой песне:
  • Аккорды и текст

Страница создана 08.03.2012
http://primanota.ru/houston-calls/elephant-and-castle-chords.htm
Привет, Гость.
Предлагаем пройти революционный курс по гитаре.
Подарок от PrimaNota.Ru, забирай!