PrimaNota.ru - самый крупный в мире бесплатный архив песенных текстов, аккордов, табулатур и нот


House Vs Hurricane - We The Reserveless - текст песни, таба, видео

Регистрация Запомнить меня
Войти через:  Facebook Google Twitter Vk Yandex Mail.ru

House Vs Hurricane - We The Reserveless - текст песни, таба, видео

Печатать
Просмотров: 84
[We, The Reserveless]
[Perspectives]
[House Vs. Hurricane]

Tuning: CGCFAD (Drop C / 1 Step Down From Drop D)
joshuaoliveira@hotmail.com

As Requested By: JonoFtw

[Riff 1a] - [00:00] - [00:12------------------------| - [4x]
- -12----------------12----------------12-----------|
- -------10/13-------------10/13-------------10/13--|
- -------------12\10-------------12\10--------------|
- ----10----------------10----------------10--------|
- --------------------------------------------------|
- --------------------------------------------------|
PM    ..                ..                ..

[Riff 1b] - [00:00] - [00:12]
- -------------------------|-------------------------|
- -10-------------13-------|-10-------------13-------|
- -------10----10-------12-|-------10-------------12-|
- ----12----10-------12----|----12----10/12----12----|
- -------------------------|-------------------------|
- -------------------------|-------------------------|
PM    ..    ..       ..         ..             ..

For Riff 1b play the first part twice, then the second part 5 times
and then the first part one last time. hard to differentiate between
the two but theres definately two different riffs and thats my guess :P
Riff 1a played 4 times evenly no change.

----------------------------------------------------------------------------

[Riff 2a, Guitar 1 & 2] - [00:12] - [00:18]
- -----------------------------------------------------------------|
- -151515151515151513131313131313131313131313131313131313131313----|
- -x-x-x-x-x-x-x-x-x-x-x-x-x-x-x-x-x-x-x-x-x-x-x-x-x-x-x-x-x-x-----|
- -121212121212121210101010101010101010101010101010101010101010----|
- -----------------------------------------------------------------|
- -----------------------------------------------------------------|
-
- -----------------------------------------------------------------|
- -----------------------------------------------------------------|
- -----------------------------------------------------------------|
- -3-3-3-3-3-3-3-3-3-3-3-3-3-3-3-3-3-3-3-3-3-3-3-3-3-3-3-3-3-3-----|
- -3-3-3-3-3-3-3-3-3-3-3-3-3-3-3-3-3-3-3-3-3-3-3-3-3-3-3-3-3-3-000-|
- -3-3-3-3-3-3-3-3-3-3-3-3-3-3-3-3-3-3-3-3-3-3-3-3-3-3-3-3-3-3-000-|
PM                                                             ...

[Riff 2b] - [00:13] - [00:18]
- -----------------------------------------------15/17----------15-|
- -------------------------------------15-15-13-------17\13--------|
- --------12-12-10-------9-10-12--10/12--------12----------17\14---|
- ----------------10------------10---------------------------------|
- ------------------12-12------------------------------------------|
- -----------------------------------------------------------------|

Riff 2b starts at the second bar of Riff 2a, you can barely hear it..

----------------------------------------------------------------------------

[Riff 3a] - [00:18] - [00:23]
- -----------------------------------------------------------------|
- -----------------------------------------------------------------|
- -----------------------------------------------------------------|
- -----------------------------------------------------------------|
- -0-------0000000-------00000000000-----0---0-000-------0---0-000-|
- -0-------0000000-------00000000000-----0---0-000-------0---0-000-|
PM ...............................................................

[Riff 3b] - [00:18] - [00:23-----------| - [2x]
- -12p8----------------------7---------|
- -----------------------8-------8/10--|
- ------9------------------9---9-------|
- --------10p7-------5/7---------------|
- -------------7h10p7------------------|
- -------------------------------------|

----------------------------------------------------------------------------

[Riff 4, Guitar 1 & 2] - [00:23] - [00:30]
- ------------------------------------------------------------------|
- -1515151515151515--------13131313---------------------------------|
- -x-x-x-x-x-x-x-x-12121212x-x-x-x-9/121212121212129-9-9-9-10101010-|
- -1212121212121212x-x-x-x-10101010x-x-x-x-x-x-x-x-x-x-x-x-x-x-x-x--|
- -----------------10101010--------7/101010101010107-7-7-7-8-8-8-8--|
- ------------------------------------------------------------------|
-
- ------------------------------------------------------------------|
- ------------------------------------------------------------------|
- ------------------------------------------------------------------|
- -3-3-3-3-3-3-3-3-3-3-3-3-3-3-3-3-3-3-3-3-3-3-3-3-3-3-3-3-3-3-3----|
- -3-3-3-3-3-3-3-3-3-3-3-3-3-3-3-3-3-3-3-3-3-3-3-3-3-3-3-3-3-3-3-33-|
- -3-3-3-3-3-3-3-3-3-3-3-3-3-3-3-3-3-3-3-3-3-3-3-3-3-3-3-3-3-3-3-33-|
PM                                                               ..

[Riff 5] - [00:30] - [00:41-----------------------------------------| - [2x]
- ------------------------------------------------------------------|
- ------------------------------------------------------------------|
- ------------------------------------------------------------------|
- ------------------------------------------------------------------|
- -7-7-------7777773--3--3---333---0-0-------0000000--0--0----000---|
- -7-7-------7777773--3--3---333---0-0-------0000000--0--0----000---|

----------------------------------------------------------------------------

[Riff 6] - [00:41] - [00:47]
- -----------------------------------------------------------------|
- -----------------------------------------------------------------|
- -----------------------------------------------------------------|
- -0~--------------------------------------------------------------|
- -0~--------------------------------------------------------------|
- -0~--------------------------------------------------------------|

----------------------------------------------------------------------------

[Riff 7a] - [00:47] - [00:57-------| - [3x]
- ---------------------------------|
- ---------------------------------|
- ---------------------------------|
- ---------------------------------|
- -0-0-------0000000--0--0---000---|
- -0-0-------0000000--0--0---000---|

[Riff 7b] - [00:57] - [01:00]
- --------------------------------|
- --------------------------------|
- --------------------------------|
- --------------------------------|
- -0-0-------0000000--0--0--------|
- -0-0-------0000000--0--0--------|

----------------------------------------------------------------------------

[Riff 8a] - [01:00] - [01:12----------------------------------------| - [4x]
- ------------------------------------------------------------------|
- ------------------------------------------------------------------|
- ------------------------------------------------------------------|
- ------------------------------------------------------------------|
- -0-0-------0000000--0--0---000---0-0-------0000000--0--0----000---|
- -0-0-------0000000--0--0---000---0-0-------0000000--0--0----000---|

- -----------------------------------------------------------------|
- -----------------------------------------------------------------|
- -----------------------------------------------------------------|
- -----------------------------------------------------------------|
- -3-3-------3333333--3--3---333---7-7-------7777777--7--7----777--|
- -3-3-------3333333--3--3---333---7-7-------7777777--7--7----777--|


[Riff 8b] - [01:00] - [01:12-----------| - [4x]
- -------------------------------------|
- ---6---------------------------------|
- -9---9------------7h10---------------|
- -------7--------------------5h8-7h8--|
- ---------8-8-8/10------5-8-----------|
- -------------------------------------|
PM           .           ...

----------------------------------------------------------------------------

[Riff 9a] - [01:12] - [01:30-------------------------------------------| - [3x]
- --------0----0-----------0----0--------------------------------------|
- --------8----8-----------8----8--------------------------------------|
- -5\3----10---10---5\3----10---10-9---9-9-9-9-9-9-9-9-9-9-9-9---------|
- -7\5--------------7\5------------8---8-8-8-8-8-8-8-8-8-8-8-8---------|
- -x-x--0----0----0-x-x--0----0----8---8-8-8-8-8-8-8-8-8-8-8-8-000000--|
- -7\5--0----0----0-7\5--0----0----8---8-8-8-8-8-8-8-8-8-8-8-8-000000--|
PM      .    .    .      .    .                                ......

[Riff 9b] - [01:30] - [01:39]
- --------0----0-----------0----0------------------------------------|
- --------8----8-----------8----8------------------------------------|
- -5\3----10---10---5\3----10---10-9---9-9-9-9-9-9-9-9-9-9-9-9-9---9-|
- -7\5--------------7\5------------8---8-8-8-8-8-8-8-8-8-8-8-8-8---8-|
- -x-x--0----0----0-x-x--0----0----8---8-8-8-8-8-8-8-8-8-8-8-8-8---8-|
- -7\5--0----0----0-7\5--0----0----8---8-8-8-8-8-8-8-8-8-8-8-8-8---8-|
PM      .    .    .      .    .

- ---------------------------------|
- ---------------------------------|
- ---9-9-9-9-9-9-9-9-9-9-9-9-12----|
- ---8-8-8-8-8-8-8-8-8-8-8-8-10----|
- ---8-8-8-8-8-8-8-8-8-8-8-8-10----|
- ---8-8-8-8-8-8-8-8-8-8-8-8-10----|

----------------------------------------------------------------------------

[Riff 10a] - [01:39] - [02:02---------------------------------------| - [4x]
- ------------------------------------------------------------------|
- ------------------------------------------------------------------|
- ------------------------------------------------------------------|
- -0~---------------------------------------------------------------|
- -0~--00000-----0---000-----0-3-3-3-3-88888---------555-----5---5--|
- -0~--00000-----0---000-----0-3-3-3-3-88888---------555-----5---5--|
PM     ...........................................................

[Riff 10b] - [01:39] - [02:02----------------------------------------| - [4x]
- -----------------12------------------------------------------------|
- -----------13----------8\5---5-5-5-5-----------13-10---------------|
- ---------------10-----11\8---8-8-8-8-------9/10------------10------|
- -------------12----------------------------------------------12----|
- -------------------------------------------------------8/10----12--|
- -------------------------------------------------------------------|

[Riff 10c] - [01:51] - [02:02---------------------------------------| - [2x]
- -----------------8------------------------------------------------|
- -----------10----------------------------------10-6--------10-----|
- -------------7-10-----10\9---5-5-5-5-------5/7---------------9p7--|
- -----------------------x-x---x-x-x-x-------------------7h10-------|
- -----------------------8\7---3-3-3-3------------------------------|
- ------------------------------------------------------------------|

----------------------------------------------------------------------------

[Riff 6] - [02:02] - [02:06]

----------------------------------------------------------------------------

[Riff 11] - [02:06] - [02:29----------------------------------------| - [2x]
- ------------------------------------------------------------------|
- -6-6-6-6-6-6-6-6-6-6-6-6-6-6-6-6-6-6-6-6-6-6-6-6-6-6-6-6-6-6-6-6--|
- -9-9-9-9-9-9-9-9-9-9-9-9-9-9-9-9-9-9-9-9-9-9-9-9-9-9-9-9-9-9-9-9--|
- ------------------------------------------------------------------|
- ------------------------------------------------------------------|
- ------------------------------------------------------------------|

- -----------------------------------------------------------------|
- -3-3-3-3-3-3-3-3-3-3-3-3-3-3-3-3-3-3-3-3-3-3-3-3-3-3-3-3-3-3-3-3-|
- -5-5-5-5-5-5-5-5-5-5-5-5-5-5-5-5-5-5-5-5-5-5-5-5-5-5-5-5-5-5-5-5-|
- -----------------------------------------------------------------|
- -----------------------------------------------------------------|
- -----------------------------------------------------------------|

[Riff 12] - [02:11] - [02:18]
- ---------------12-------------------12----------|
- ----13----15------15----13----15-------15----15-|
- -14----14------------14----14----14-------17----|
- ------------------------------------------------|
- ------------------------------------------------|
- ------------------------------------------------|

- ----------17-12-------15----------15/17----------|
- -15----15-------15-------15----15-------15-------|
- ----14-------------17-------14-------------17-14-|
- -------------------------------------------------|
- -------------------------------------------------|
- -------------------------------------------------|

[Riff 13] - [02:24] - [02:29]
- ---------------12-------------------12-------12-|
- ----13----15------15----13----15-------15-------|
- -14----14------------14----14----14-------17----|
- ------------------------------------------------|
- ------------------------------------------------|
- ------------------------------------------------|

- -------------15/17----------------20-------------|
- -15----15----------15----------17----17----------|
- ----17----14----------14-17/19----------19-17-16-|
- -------------------------------------------------|
- -------------------------------------------------|
- -------------------------------------------------|

----------------------------------------------------------------------------

[Riff 14a] - [02:29] - [02:42]
- -----------------------------------------------------------------|
- -6-6-6-6-6-6-6-6-13131313131313136-6-6-6-6-6-6-6-6-6-6-6-6-6-6-6-|
- -9-9-9-9-9-9-9-9-14141414141414147-7-7-7-7-7-7-7-7-7-7-7-7-7-7-7-|
- -----------------------------------------------------------------|
- -----------------------------------------------------------------|
- -----------------------------------------------------------------|

- -----------------------------------------------------------------|
- -6-6-6-6-6-6-6-6-13131313131313136-6-6-6-6-6-6-6-3-3-3-3-3-3-3-3-|
- -7-7-7-7-7-7-7-7-14141414141414147-7-7-7-7-7-7-7-5-5-5-5-5-5-5-5-|
- -----------------------------------------------------------------|
- -----------------------------------------------------------------|
- -----------------------------------------------------------------|

[Riff 14b] - [02:29] - [02:42]
- -------------------------------------------------|
- -------------------------------------------------|
- -14-14-14-14-14-14-14-14-14-14-14-14-14-14-14-14-|
- -------------------------------------------------|
- -------------------------------------------------|
- -------------------------------------------------|

- -------------------------------------------------|
- -------------------------15-15-15-15-15-15-15-15-|
- -14-14-14-14-14-14-17-17-------------------------|
- -------------------------------------------------|
- -------------------------------------------------|
- -------------------------------------------------|

- -------------------------------------------------|
- -------------------------------------------------|
- -------------------------17-17-17-17-17-17-17-17-|
- -14-14-14-14-14-14-14-14-------------------------|
- -------------------------------------------------|
- -------------------------------------------------|

- -------------------------------------------------|
- -------------------------------------------------|
- -------------------------19-19-19-19-19-19-19-19-|
- -15-15-15-15-15-15-15-15-------------------------|
- -------------------------------------------------|
- -------------------------------------------------|

----------------------------------------------------------------------------

[Riff 15a] - [02:42] - [02:56]
- ----------------------------------------8--------------8---------|
- -------6---------------------------10------10-----10------10-----|
- ---5-------5-----------5---------7----7-------7-7----7-------7---|
- -7---7-------7-----7-------7-------------------------------------|
- -----------------8---8-------8-----------------------------------|
- -----------------------------------------------------------------|
PM .   .           .   .           .    .         .    .

- ----------------------------------------8------------------------|
- -------6---------------------------10------10--------------------|
- ---5-------5-----------5---------7----7-------7--------5---------|
- -7---7-------7-----7-------7-----------------------7-------7-----|
- -----------------8---8-------8-------------------8---8-------8---|
- -----------------------------------------------------------------|
PM .   .           .   .           .    .          .   .

[Riff 15b] - [02:42] - [02:56]
- -----------------------13------------------------------17br------|
- -10\----------------------------------------/13--15--------------|
- --9\--------/12--14----------14--12------------------------------|
- -----------------------------------------------------------------|
- -----------------------------------------------------------------|
- -----------------------------------------------------------------|

- -----------------------13-----------------------------|
- ------------------------------------------------------|
- ------------/12--14----------14--12-----------12h14---|
- -----------------------------------15-14-15-14-----12-|
- ------------------------------------------------------|
- ------------------------------------------------------|

- -------------10----------|
- -------13-------13----13-|
- ----------12-------12----|
- -10/12-------------------|
- -------------------------|
- -------------------------|

----------------------------------------------------------------------------

[Riff 16] - [02:56] - [03:06-----------------------------------------| - [2x]
- -------------------------------------------------------------------|
- -------------------------------------------------------------------|
- -------------------------7-------------------------------7---------|
- -12\---------------------x-------0-----------------------x---------|
- -12\---0000000---------005-0-00000-----0000000---0-----005-0-0000--|
- -12\---0000000---------00--0-00000-----0000000---0-----00--0-0000--|
PM       ..................  ......      ..................  ......

----------------------------------------------------------------------------

[Riff 17] - [03:11] - [03:17]
- -----------------|
- -----------------|
- -----------------|
- -3~--7~--5~--2~--|
- -1~--5~--3~--0~--|
- -----------------|

[Riff 18, Guitar 1 & 2] - [03:17] - [03:29--------------------------| - [2x]
- ------------------------------------------------------------------|
- ------------------------------------------------------------------|
- ------------------------------------------------------------------|
- -3-3-3-3-3-3-3-3-7-7-7-7-7-7-7-7-5-5-5-5-5-5-5-5-5-5-5-5-5-2-2-2--|
- -1-1-1-1-1-1-1-1-5-5-5-5-5-5-5-5-3-3-3-3-3-3-3-3-3-3-3-3-3-0-0-0--|
- ------------------------------------------------------------------|
-
- ------------------------------------------------------------------|
- ------------------------------------------------------------------|
- -101010101010101014141414141414149-9-9-9-9-9-9-9-1414141414141414-|
- -x-x-x-x-x-x-x-x-x-x-x-x-x-x-x-x-x-x-x-x-x-x-x-x-x-x-x-x-x-x-x-x--|
- -8-8-8-8-8-8-8-8-12121212121212127-7-7-7-7-7-7-7-1212121212121212-|
- ------------------------------------------------------------------|

[Riff 19] - [03:29] - [03:32]
- -------------------------------------|
- ---------------3-----3-----3-----3---|
- -------------/---\-/---\-/---\-/---\-|
- -3~----------5-5-5-5-5-5-5-5-5-7-7-7-|
- -1~----------5-5-5-5-5-5-5-5-5-7-7-7-|
- -------------5-5-5-5-5-5-5-5-5-7-7-7-|

----------------------------------------------------------------------------

[Riff 20] - [03:32] - [03:45----------------| - [2x]
- ------------------------------------------|
- ------------------------------------------|
- ---3-------------3-----3-------------3----|
- -/---\---------/---\-/---\---------/---\--|
- -0-0-0-0-------0-0-0-0-0-0-0-------0-0-0--|
- -0-0-0-0-------0-0-0-0-0-0-0-------0-0-0--|
PM .......................................

- ----------------------------------------------|
- ----------------------------------------------|
- ---3-------------3-----3-----3-----3-----3----|
- -/---\---------/---\-/---\-/---\-/---\-/---\--|
- -3-3-3-3-------3-3-3-101010101010101010101010-|
- -3-3-3-3-------3-3-3-101010101010101010101010-|
PM ............................................

----------------------------------------------------------------------------

[Riff 21] - [03:45] - [03:53]
- -----------------------------------------------------------------|
- -----------------------------------------------------------------|
- -----------------------------------------------------------------|
- -----------------------------------------------------------------|
- -0~--------------------------------------------------------------|
- -0~--------------------------------------------------------------|
PM ...............................................................

----------------------------------------------------------------------------

[Symbols]

PM... Palm Mute notes with (...) under them
\     Slide Down
/     Slide Up
x     Dead Note
h     Hammer On
p     Pull Off
~     Let Ring
/3\   Triplet (Three 8th Notes in a Quarter Note time, for example)

:)
Добавлено: 16.04.2012
Другие материалы по этой песне:

Страница создана 28.02.2012
http://primanota.ru/house-vs-hurricane/we-the-reserveless-chords.htm
Привет, Гость.
Предлагаем пройти революционный курс по гитаре.
Подарок от PrimaNota.Ru, забирай!