PrimaNota.ru - самый крупный в мире бесплатный архив песенных текстов, аккордов, табулатур и нот


House Vs Hurricane - Seeing Things Through Water - таба, видео

Регистрация Запомнить меня
Войти через:  Facebook Google Twitter Vk Yandex Mail.ru

House Vs Hurricane - Seeing Things Through Water - таба, видео

Печатать
Просмотров: 94
[Seeing Things Through Water]
[Forfeitures]
[House Vs. Hurricane]

Tuning: CGCFAD (Drop C / 1 Step Down From Drop D)

As Requested By: JonoFtw

[Riff 1a] - [00:03] - [00:23] - [2x]
- ------------------------------------------------------------------|
- ------------------------------------------------------------------|
- ------------------------------------------------------------------|
- -2-2-2-2-2-2-2-2-2-2-2-2-2-2-2-2-1-1-1-1-1-1-1-1-1-1-1-1-1-1-1-1--|
- -0-0-0-0-0-0-0-0-0-0-0-0-0-0-0-0-1-1-1-1-1-1-1-1-1-1-1-1-1-1-1-1--|
- ---------------------------------1-1-1-1-1-1-1-1-1-1-1-1-1-1-1-1--|

- -----------------------------------------------------------------|
- -----------------------------------------------------------------|
- -----------------------------------------------------------------|
- -5-5-5-5-5-5-5-5-5-5-5-5-5-5-5-5-1-1-1-1-1-1-1-1-3-3-3-3-3-3-3-3-|
- -5-5-5-5-5-5-5-5-5-5-5-5-5-5-5-5-1-1-1-1-1-1-1-1-3-3-3-3-3-3-3-3-|
- -5-5-5-5-5-5-5-5-5-5-5-5-5-5-5-5-1-1-1-1-1-1-1-1-3-3-3-3-3-3-3-3-|

[Riff 1b] - [00:03] - [00:23] - [2x]
- --------------------------------------|
- --------------------------------------|
- -7/9-9-9-9-9-9-10-10-10-10-9-9-9-9-9--|
- -x-x-x-x-x-x-x-x--x--x--x--x-x-x-x-x--|
- -5/7-7-7-7-7-7-8--8--8--8--7-7-7-7-7--|
- --------------------------------------|

- ------------------------------------------------|
- ------------------------------------------------|
- -9/12-12-12-12-12-12-12-12-10-10-10-10-10-10-10-|
- -x-x--x--x--x--x--x--x--x--x--x--x--x--x--x--x--|
- -7/10-10-10-10-10-10-10-10-8--8--8--8--8--8--8--|
- ------------------------------------------------|

- -------------------------------------------------|
- -------------------------------------------------|
- -10/14-14-14-14-14-14-15-15-15-15-14-14-14-14-14-|
- -x--x--x--x--x--x--x--x--x--x--x--x--x--x--x--x--|
- -8-/12-12-12-12-12-12-13-13-13-13-12-12-12-12-12-|
- -------------------------------------------------|

- -------------------------------------------------|
- -------------------------------------------------|
- -14/17-17-17-17-17-17-17-17-15-15-15-15-15-15-15-|
- -x--x--x--x--x--x--x--x--x--x--x--x--x--x--x--x--|
- -12/15-15-15-15-15-15-15-15-13-13-13-13-13-13-13-|
- -------------------------------------------------|

----------------------------------------------------------------------------

[Riff 2a] - [00:23] - [00:36]
- -----------------------------------------------------------------|
- -----------------------------------------------------------------|
- ---------------------------------------------------------5/7-7---|
- ---------------------------------------------------------x-x-x---|
- -0-0-0-000-0---0---0-0-000-0-0-0-0-0-0-000-0---0---0-0-003/5-5---|
- -0-0-0-000-0---0---0-0-000-0-0-0-0-0-0-000-0---0---0-0-00--------|
PM ........................................................

- ------------------------------------------------------------------|
- ------------------------------------------------------------------|
- ---------------------------------------------------------5/7-[7~]-|
- ---------------------------------------------------------x-x------|
- -0-0-0-000-0---0---0-0-000-0-0-0-0-0-0-000-0---0---0-0-003/5------|
- -0-0-0-000-0---0---0-0-000-0-0-0-0-0-0-000-0---0---0-0-00---------|
PM ........................................................

[Riff 2b, Guitar 1 & 2] - [00:36] - [00:48]
- -----------------------------------------------------------------|
- -----------------------------------------------------------------|
- ---------------------------------------------------------5/7-7---|
- ---------------------------------------------------------x-x-x---|
- -0-0-0-000-0---0---0-0-000-0-0-000-0-0-000-0---0---0-0-003/5-5---|
- -0-0-0-000-0---0---0-0-000-0-0-000-0-0-000-0---0---0-0-00--------|
PM ........................................................
-
- -----------------------------------------------------------------|
- -----------------------------------------------------------------|
- ---------------------------------------------------------9/10-10-|
- ---------------------------------------------------------x-x--x--|
- -0-0-0-000-0---0---0-0-000-0-0-000-0-0-000-0---0---0-0-007/8--8--|
- -0-0-0-000-0---0---0-0-000-0-0-000-0-0-000-0---0---0-0-00--------|
PM ........................................................


- -----------------------------------------------------------------|
- -----------------------------------------------------------------|
- ---------------------------------------------------------5/7-7---|
- ---------------------------------------------------------x-x-x---|
- -0-0-0-000-0---0---0-0-000-0-0-0-0-0-0-000-0---0---0-0-003/5-5---|
- -0-0-0-000-0---0---0-0-000-0-0-0-0-0-0-000-0---0---0-0-00--------|
PM ........................................................
-
- -------------------------------------------------------------------|
- -------------------------------------------------------------------|
- ---------------------------------------------------------9/10-[7~]-|
- ---------------------------------------------------------x-x-------|
- -0-0-0-000-0---0---0-0-000-0-0-0-0-0-0-000-0---0---0-0-007/8-------|
- -0-0-0-000-0---0---0-0-000-0-0-0-0-0-0-000-0---0---0-0-00----------|
PM ........................................................

----------------------------------------------------------------------------

[Riff 3, Guitar 1 & 2] - [00:48] - [01:10] - [2x]
- ---8-----8---------8-----8---------8-----8---------8-----8--------|
- -----8-----8---8-----8-----8---8-----8-----8---8-----8-----8---8--|
- -7-----7-----7---7-----7-----7---7-----7-----7---7-----7-----7----|
- ------------------------------------------------------------------|
- ------------------------------------------------------------------|
- ------------------------------------------------------------------|
-
- -0-0-0-0---0---0---0-0-0-0-0-0-0-0-0-0-0---0---0---0-0-0-0-0-0-0--|
- -8-8-8-8---8---8---8-8-8-8-8-8-8-8-8-8-8---8---8---8-8-8-8-8-8-8--|
- -10101010--10--10--1010101010101010101010--10--10--10101010101010-|
- ------------------------------------------------------------------|
- ------------------------------------------------------------------|
- ------------------------------------------------------------------|


- ------------------------------------------------------------------|
- ---------------8-------------------------------8------------------|
- ---------10------10------10--------------10------10------10-------|
- -----10----10--------10----10--10----10----10--------10----10--10-|
- -7/8---8-----8-----8---8-----8---7/8---8-----8-----8---8-----8----|
- ------------------------------------------------------------------|
-
- ------------------------------------------------------------------|
- ------------------------------------------------------------------|
- ------------------------------------------------------------------|
- ------------------------------------------------------------------|
- -000000000-0---0---0---0-0-000000000000000-0---0---0---0-0-000000-|
- -000000000-0---0---0---0-0-000000000000000-0---0---0---0-0-000000-|
PM ................................................................

----------------------------------------------------------------------------

[Riff 4a] - [01:10] - [01:16] - [2x]
- -------------------------------------------------------------------|
- ---------------8-------------------------------8-------------------|
- ---------10------10------10--------------10------10------10--------|
- -----10----10--------10----10--10----10----10--------10----10--10--|
- -7/8---8-----8-----8---8-----8---7/8---8-----8-----8---8-----8-----|
- -------------------------------------------------------------------|

[Riff 4b] - [01:10] - [01:16] [2x]
- -------------------------10------------------------------10-------|
- ---------10----8-8---------8---8---------10----8-8---------8---8--|
- -----10p7----7-----7---7-----7-------10p7----7-----7---7-----7----|
- -8/10------10--------10----------8/10------10--------10-----------|
- ------------------------------------------------------------------|
- ------------------------------------------------------------------|

[Riff 4c] - [01:10] - [01:16] - [2x]
- -13--13--13------13------13------13--13--13------13------13-------|
- -------15----15----15--15----15--------15----15----15--15----15---|
- -----------17--------17----17--------------17--------17----17-----|
- ------------------------------------------------------------------|
- ------------------------------------------------------------------|
- ------------------------------------------------------------------|

Riff 4c is really quite and mostly in the right speaker with Riff 4b.
but it is there!

----------------------------------------------------------------------------

[Riff 5] - [01:16] - [01:22]
- -0-0-0-0-0-0-0-0-0-0-0-0-0-0-0-0-0-0-0-0-0-0-0-0-0-0-0-0-0-------|
- -8-8-8-8-8-8-8-8-8-8-8-8-8-8-8-8-8-8-8-8-8-8-8-8-8-8-8-8-8-------|
- -1010101010101010101010101010101010101010101010101010101010------|
- -----------------------------------------------------------------|
- -----------------------------------------------------------------|
- -----------------------------------------------------------------|

----------------------------------------------------------------------------

[Riff 6a] - [01:22] - [01:30] - [3x]
- -------------------------------------------------|
- ------------10-------------15-------15-----------|
- ------10-------10----10/12----12-------12--------|
- -8/10----12-------12-------------15-------12-----|
- -------------------------------------------------|
- -------------------------------------------------|

[Riff 6b] - [01:30] - [01:33]
- -13----12----------------------------------------|
- -------------13----------13----15----18----17----|
- ----------------14-12/14----12----14----14----14-|
- -------------------------------------------------|
- -------------------------------------------------|
- -------------------------------------------------|
AP ...........

Riff 6 a + b played twice in order.

[Riff 7] - [01:22] - [01:44-----------------------------------------| - [2x]
- ------------------------------------------------------------------|
- ------------------------------------------------------------------|
- ------------------------------------------------------------------|
- -8-8-8-8-8-8-8-8---8-8---8-8-8\--5-5-5-5-5-5-5-5---5-5-5-5-3-3-3--|
- -8-8-8-8-8-8-8-8---8-8---8-8-8\--5-5-5-5-5-5-5-5---5-5-5-5-3-3-3--|
- -8-8-8-8-8-8-8-8---8-8---8-8-8\--5-5-5-5-5-5-5-5---5-5-5-5-3-3-3--|

- -----------------------------------------------------------------|
- -----------------------------------------------------------------|
- -----------------------------------------------------------------|
- -0-0-0-0-0-0-0-0---0-0---0-0-0---3-3-3-3-3-3-3-3-3-3-3-3-3-3-3-3-|
- -0-0-0-0-0-0-0-0---0-0---0-0-0---3-3-3-3-3-3-3-3-3-3-3-3-3-3-3-3-|
- -0-0-0-0-0-0-0-0---0-0---0-0-0---3-3-3-3-3-3-3-3-3-3-3-3-3-3-3-3-|

----------------------------------------------------------------------------

[Riff 8, Guitar 1 & 2] - [01:44] - [02:07---------------------------| - [2x]
- ------------------------------------------------------------------|
- -6-6-6-6-6---6-6-------6---6---6-6-6-6-6-6---6-6-------6---6---6--|
- -9-9-9-9-9---9-9-------9---9---9-9-9-9-9-9---9-9-------9---9---9--|
- ------------------------------------------------------------------|
- ------------------------------------------------------------------|
- ------------------------------------------------------------------|
-
- -----------------------------------------------------------------|
- -8-8-8-8-8-8-8-8-8-8-8-8-8-8-8-8-8-8-8-8-8-8-8-8-8-8-8-8-8-8-8-8-|
- -9-9-9-9-9-9-9-9-9-9-9-9-9-9-9-9-9-9-9-9-9-9-9-9-9-9-9-9-9-9-9-9-|
- -----------------------------------------------------------------|
- -----------------------------------------------------------------|
- -----------------------------------------------------------------|


- -----------------------------------------------------------------|
- -6-6-6-6-6---6-6-------6---6---6-6-6-6-6-6---6-6-------6---6---6-|
- -9-9-9-9-9---9-9-------9---9---9-9-9-9-9-9---9-9-------9---9---9-|
- -----------------------------------------------------------------|
- -----------------------------------------------------------------|
- -----------------------------------------------------------------|
-
- -----------------------------------------------------------------|
- -3-3-3-3-3-3-3-3-3-3-3-3-3-3-3-3-3-3-3-3-3-3-3-3-3-3-3-3-3-3-3-3-|
- -5-5-5-5-5-5-5-5-5-5-5-5-5-5-5-5-5-5-5-5-5-5-5-5-5-5-5-5-5-5-5-5-|
- -----------------------------------------------------------------|
- -----------------------------------------------------------------|
- -----------------------------------------------------------------|

----------------------------------------------------------------------------

[Riff 9] - [02:07] - [02:29------------------------------------------| - [4x]
- -------------------------------------------------------------------|
- -----------------------------------6-6-6-6-6---3-3/5-5-5-5/8-8-8---|
- -----------------------------------7-7-7-7-7---5-5/7-7-7-7/101010--|
- ---------7---7\----------8---8-------------------------------------|
- -888-888-8-8-8\--555-555-5-5-5---0-----------0---------------------|
- -888-888-8-8-8\--555-555-5-5-5---0-----------0---------------------|
PM .......   .     .......   .     .           .

----------------------------------------------------------------------------

[Riff 6a + b & Riff 7] - [02:29] - [02:52] - [2x]

----------------------------------------------------------------------------

[Riff 10a] - [02:52] - [03:14----------------------------------------| - [2x]
- -------------------------------------------------------------------|
- -------------------------------------------------------------------|
- -------------------------------------------------------------------|
- -8-8---888-8---888-8---8-8-8---885-5---5-5-5---555-5---5-5-5---55--|
- -8-8---888-8---888-8---8-8-8---885-5---5-5-5---555-5---5-5-5---55--|
- -8-8---888-8---888-8---8-8-8---885-5---5-5-5---555-5---5-5-5---55--|

- ------------------------------------------------------------------|
- ------------------------------------------------------------------|
- ------------------------------------------------------------------|
- -0-0---0-0-0---000-0---0-0-0---003-3---3-3-3---333-3---3-3-3---33-|
- -0-0---0-0-0---000-0---0-0-0---003-3---3-3-3---333-3---3-3-3---33-|
- -0-0---0-0-0---000-0---0-0-0---003-3---3-3-3---333-3---3-3-3---33-|

[Riff 10b] - [03:03] - [03:14-----------------------| - [2x]
- -13-12----------------17-------------17-----------|
- -------13-------15-------------15-------15----15--|
- ----------12/14----14-------14----14-------14-----|
- --------------------------------------------------|
- --------------------------------------------------|
- --------------------------------------------------|

- -13-12----------------17-------------------------|
- -------13-------15-------------15----15p13-------|
- ----------12/14----14-------14----14-------12h14-|
- -------------------------------------------------|
- -------------------------------------------------|
- -------------------------------------------------|

----------------------------------------------------------------------------

[Riff 11a] - [03:14] - [03:26---------------------------------------| - [4x]
- ------------------------------------------------------------------|
- ------------------------------------------------------------------|
- ------------------------------------------------------------------|
- ------------------------------------------------------------------|
- -00-00-0000-00-----------0-00-00-00-00-0000-00-----------0-00-00--|
- -00-00-0000-00-----------0-00-00-00-00-0000-00-----------0-00-00--|

[Riff 11b] - [03:14] - [03:26-----------| - [4x]
- --------------------------7-----------|
- -------8h10---10-----10-----10---7h8--|
- -7h9-9------9----9-9----9------9------|
- --------------------------------------|
- --------------------------------------|
- --------------------------------------|

----------------------------------------------------------------------------

[Riff 12a] - [03:26] - [03:50---------------------------------------| - [2x]
- ------------------------------------------------------------------|
- ------------------------------------------------------------------|
- ---------------------------------------------------------5/7-7----|
- ---------------------------------------------------------x-x-x----|
- -333333333---3-----3---333-333---333333333---3-----3---333/5-5----|
- -333333333---3-----3---333-333---333333333---3-----3---33---------|
PM ........................................................

- -----------------------------------------------------------------|
- -----------------------------------------------------------------|
- -----------------------------------------------------------------|
- -----------------------------------------------------------------|
- -777777777---7-----7---777-777---777777777---7-----7---777-777---|
- -777777777---7-----7---777-777---777777777---7-----7---777-777---|
PM .............................................................

[Riff 12b] - [03:26] - [03:50----------------------------------------| - [4x]
- -0-0-0-0-0-0-0-0-0-0-0-0-0-0-0-0-0-0-0-0-0-0-0-0-0-0-0-0-0-0-0-0---|
- -8-8-8-8-8-8-8-8-8-8-8-8-8-8-8-8-8-8-8-8-8-8-8-8-8-8-8-8-8-8-8-8---|
- -1010101010101010101010101010101010101010101010101010101010101010--|
- -------------------------------------------------------------------|
- -------------------------------------------------------------------|
- -------------------------------------------------------------------|

----------------------------------------------------------------------------

[Riff 13a] - [03:50] - [04:38] - [12---------------|x]
- -------------------------------------------------|
- ------------10-------------15-------15-----------|
- ------10-------10----10/12----12-------12----12--|
- -8/10----12-------12-------------15-------12-----|
- -------------------------------------------------|
- -------------------------------------------------|

[Riff 13b] - [03:50] - [04:38---------------------------------------| - [3x]
- ------------------------------------------------------------------|
- -----------10--10~-------------------------10--10~-10----10-------|
- -----10p9---9---9~-------------------10p9---9---9~---9-----9---9--|
- -5/7-----------------------------5/7-------------------7-----7----|
- ------------------------------------------------------------------|
- ------------------------------------------------------------------|

- ------------------------------------------------------------------|
- ---------------8-------------------------------8------------------|
- ---------10------10------10--------------10------10------10-------|
- -----10----10--------10----10--10----10----10--------10----10--10-|
- -7/8---8-----8-----8---8-----8---7/8---8-----8-----8---8-----8----|
- ------------------------------------------------------------------|

----------------------------------------------------------------------------

[Symbols]

/     Slide Up
\     Slide Down
x     Dead Note
PM... Palm Mute notes with (...) under them
AP... Alternate Pick notes with (...) under them
h     Hammer On
p     Pull Off
~     Let Ring

:)
Добавлено: 08.04.2012
Другие материалы по этой песне:

Страница создана 25.02.2012
http://primanota.ru/house-vs-hurricane/seeing-things-through-water-chords.htm
Привет, Гость.
Предлагаем пройти революционный курс по гитаре.
Подарок от PrimaNota.Ru, забирай!