PrimaNota.ru - самый крупный в мире бесплатный архив песенных текстов, аккордов, табулатур и нот


House Vs Hurricane - Positively Shifted - текст песни, таба, видео

Регистрация Запомнить меня
Войти через:  Facebook Google Twitter Vk Yandex Mail.ru

House Vs Hurricane - Positively Shifted - текст песни, таба, видео

Печатать
Просмотров: 104
This is most of the song, if you figure out anything or have some corrections please do comment.

Tabbed by: JonoFtw
Email: Jonathan_kotyla@hotmail.com
It's mostly rhythm guitar
It's in Drop C Tuning 
It's not perfect but you can work off it pretty well.

Guitar 1 clean intro bit: 0:00-1:06
e|-----------------------------5------------------------------------|x9
B|-----6-------6-------8---------8------6-------6-------7-------7---|
G|---7---7---7---7---7---7---7--------7---7---7---7---5---5---5---5-|
D|-8-------8-------8-------8--------8-------8-------5-------5-------|
A|------------------------------------------------------------------|
E|------------------------------------------------------------------|
          Guitar 2 thingo:  0:07-0:35
e|---------------------------------------|
B|---------------------------------------|
G|---------------------------------------|
D|---------------------------------------|
A|--88888888888888880000000000000000-----|x4
E|--88888888888888880000000000000000-----|
    ................................

       Guitar 3 bit: 0:22-1:06
e|-------------------------------------|
B|-------------------------------------|
G|-------------------------------------|x6
D|-8-888--888-75-0-000--000-57-8-888---|
A|-8-888--888-75-0-000--000-57-8-888---|
E|-8-888--888-75-0-000--000-57-8-888---|
   . ...  ... .. . ...  ... .. . ...
 
 Guitar 1: 1:15-1:29
e|---------------------------------------------------|
B|---------------------------------------------------|
G|---------------------------------------------------|
D|-/7-----------------/7-----10--12~--/14---10-------|
A|-----5--8--10--0--------8--------------------------|
E|---------------------------------------------------|

     1:29-1:44
e|----------------------------------------------|
B|----------------------------------------------|
G|-2-2-2-2--------------------------------------|
D|-0-0-0-0----7-7-7-7----3-3-3-3----5-5-5-5-----|
A|-0-0-0-0----7-7-7-7----3-3-3-3----5-5-5-5-----|
E|-0-0-0-0----7-7-7-7----3-3-3-3----5-5-5-5-----|

  1:46-2:15 They use these notes, you figure out strumming pattern  
e|--------------------------------------------------------------|
B|--------------------------------------------------------------|
G|--------------------------------------------------------------|
D|-555555-777-00000000000-88888888-77-333333333-777-------------|
A|-555555-777-00000000000-88888888-77-333333333-777-------------|
E|-555555-777-00000000000-88888888-77-333333333-777-------------|

     2:16-2:28
e|--------------------------------------------------------------|
B|--------------------------------------------------------------|
G|--------------------------------------------------------------|
D|-0-0-0--00-0-000-0-0-0--00-0-000----(x4)----------------------|
A|-0-0-0--00-0-000-0-0-0--00-0-000------------------------------|
E|-0-0-0--00-0-000-0-0-0--00-0-000------------------------------|
   . . .  .. . ... . . .  .. . ... 
     2:28-2:43
e|-----------------------------------------------------------------|
B|-----------------------------------------------------------------|
G|-77777777--55555555--3333333333333333----(x2)-33333333-----------|
D|-55555555--33333333--1111111111111111---------11111111--End on this|
A|-55555555--33333333--1111111111111111---------11111111-----------|
E|-55555555--33333333--1111111111111111---------11111111-----------|

I don't know 2:43-3:09 but i think it would be pretty easy to figure out

3:10-3:20 is nothing

 3:21-3:33  All Tremelo picked
e|------------------------------------------------------|
B|------------------------------------------------------|
G|-0-10-7-10-0---10-7-10---0--7-14-15-12--7-15-14-10----|
D|-----------------------7------------------------------|
A|------------------------------------------------------|
E|------------------------------------------------------|

 3:33-3:58
e|---------------------------------------------------------------|
B|---------------------------------------------------------------|
G|-5------7------3------------9------7------5----------(x4)------|
D|-3------5------1------------7------5------3--------------------|
A|-33333--55555--1-1111111----77777--55555--3-3333333------------|
E|-33333--55555--1-1111111----77777--55555--3-3333333------------|
    ....   ....    .......     ....   ....    .......

3:59-4:18 i can't figure out.

   4:18-4:32 Breakdown bit
e|--------------------------------------------------------------------------|
B|--------------------------------------------------------------------------|
G|--------------------------------------------------------------------------|
D|--0--0000-000-00000---000-0---000-0000-0---0000-000-0000---000-0--000-0000|
A|--0--0000-000-00000---000-0---000-0000-0---0000-000-0000---000-0--000-0000|
E|--0--0000-000-00000---000-0---000-0000-0---0000-000-0000---000-0--000-0000|
       .... ... .....   ...     ... ....     .... ... ....   ...    ... ....
 
   4:32-4:44
e|---------------------------------------------|
B|--------------------------------------(x2)---|
G|----------44444444-55555555-77777777---------|
D|-00000000-22222222-33333333-55555555---------|
A|-00000000-22222222-33333333-55555555---------|
E|-00000000-22222222-33333333-55555555---------|

   4:44-4:50
e|----------------------------|
B|----------------------------|
G|---------(x3)---------------|
D|-88-57-0-------0------------|
A|-88-57-0-------0------------|
E|-88-57-0-------0------------|

   4:50-5:02
e|-------------------------------------------------------------|
B|-------------------------------------------------------------|
G|----------------------------------------------(x2)-----------|
D|-000-0-0-0--000-0-0-0--000-0-0-0--000-0-00-00----------------|
A|-000-0-0-0--000-0-0-0--000-0-0-0--000-0-00-00----------------|
E|-000-0-0-0--000-0-0-0--000-0-0-0--000-0-00-00----------------|
   ... . . .  ... . . .  ... . . .  ... . .. ..
    
    5:03-5:15
e|-------------------------------------------------------------------|
B|-------------------------------------------------------------------|
G|-------------------------------------------------------------------|
D|-------------------------------------------------------------------|
A|-------------------------------------------------------------------|
E|-00000000666666663333333388888888-00000000666666663333333388888888-|

   5:17-5:27
e|----------------------------------|
B|----------------------------------|
G|----------------------------------|
D|-000-0-00-0----x7-----------------|
A|-000-0-00-0-----------------------|
E|-000-0-00-0-----------------------|
   ... . .. .
Enjoy


************************************

| /   slide up
| \   slide down
| h   hammer-on
| p   pull-off
| ~   vibrato
| +   harmonic
| x   Mute note
| b   Bend
| pb  Pre-bend
| br  Bend release
| pbr Pre-bend release
| brb Bend release bend
|  .  Palm mute
************************************
Добавлено: 16.05.2012
Другие материалы по этой песне:

Страница создана 22.02.2012
http://primanota.ru/house-vs-hurricane/positively-shifted-chords.htm
Привет, Гость.
Предлагаем пройти революционный курс по гитаре.
Подарок от PrimaNota.Ru, забирай!