PrimaNota.ru - самый крупный в мире бесплатный архив песенных текстов, аккордов, табулатур и нот


House Vs Hurricane - Iii Nevermore - таба, видео

Регистрация Запомнить меня
Войти через:  Facebook Google Twitter Vk Yandex Mail.ru

House Vs Hurricane - Iii Nevermore - таба, видео

Печатать
Просмотров: 39
[III. Nevermore]
[Perspectives]
[House vs Hurricane]

Tuning: CGCFAD (Drop C)
joshuaoliveira@hotmail.com

As Requested By: JonoFtw

The clean guitar that crosses over from the previous track is a 13 on the high string

[Riff 1] - [00:00] - [00:06]
- -----------------------------------------------------------------|
- -8-8-8-8---8---8-8-8-8---8-8-8---8-8-8-8---8---8-8-8-8---8-8-8---|
- -10101010--10--10101010--101010--10101010--10--10101010--101010--|
- -----------------------------------------------------------------|
- -----------------------------------------------------------------|
- -----------------------------------------------------------------|

[Riff 2a] - [00:06] - [00:36]
- -----------------------------------------------------------------|
- -8-8-8-8---8---8-8-8-8---8-8-8---8-8-8-8---8---8-8-8-8---8-8-8---|
- -10101010--10--10101010--101010--10101010--10--10101010--101010--|
- -10101010--10--10101010--101010--10101010--10--10101010--101010--|
- -----------------------------------------------------------------|
- -----------------------------------------------------------------|

- -----------------------------------------------------------------|
- -13131313--13--13131313--131313--13131313--13--13131313--131313--|
- -12121212--12--12121212--121212--12121212--12--12121212--121212--|
- -10101010--10--10101010--101010--10101010--10--10101010--101010--|
- -----------------------------------------------------------------|
- -----------------------------------------------------------------|

- -----------------------------------------------------------------|
- -8-8-8-8---8---8-8-8-8---8-8-8---8-8-8-8---8---8-8-8-8---8-8-8---|
- -10101010--10--10101010--101010--10101010--10--10101010--101010--|
- -10101010--10--10101010--101010--10101010--10--10101010--101010--|
- -----------------------------------------------------------------|
- -----------------------------------------------------------------|

- -----------------------------------------------------------------|
- -13131313--13--13131313--131313--13131313--13--13131313--131313--|
- -12121212--12--12121212--121212--12121212--12--12121212--121212--|
- -10101010--10--10101010--101010--10101010--10--10101010--101010--|
- -----------------------------------------------------------------|
- -----------------------------------------------------------------|

- -----------------------------------------------------------------|
- -----------------------------------------------------------------|
- -----------------------------------------------------------------|
- -8-8-8-8-8-8-8-8-5-5-5-5-5-5-5-5---------------------------------|
- -8-8-8-8-8-8-8-8-5-5-5-5-5-5-5-5---------------------------------|
- -8-8-8-8-8-8-8-8-5-5-5-5-5-5-5-5---------------------------------|

[Riff 2b] - [00:06] - [00:30]
- ---------------------------------------10---------------------------------------------10-------|
- -------13----15-13---10/13\10-------------13~---------13----15-13---10/13\10-------------13----|
- -10/12----12------------------12\10/12----------10/12----12------------------12\10/12-------12-|
- -----------------------------------------------------------------------------------------------|
- -----------------------------------------------------------------------------------------------|
- -----------------------------------------------------------------------------------------------|
PM                                                                                            ..

- -------------------------------------------------------------------------------------------------|
- -------------------------------------------13----------------------------------------------13----|
- ----------14----------14----------------------------------14----------14-------------------------|
- -10-12-10----10-12-10----10-12-10/12-15p12----12-10-12-10----10-12-10----10-12-10/12-15p12----12-|
- -------------------------------------------------------------------------------------------------|
- -------------------------------------------------------------------------------------------------|
PM ........    ........    .....                ...........    ........    .....                ..

- ---------------------------------------10---------------------------------------------10-------|
- -------13----15-13---10/13\10-------------13~---------13----15-13---10/13\10-------------13----|
- -10/12----12------------------12\10/12-------12-10/12----12------------------12\10/12-------12-|
- -----------------------------------------------------------------------------------------------|
- -----------------------------------------------------------------------------------------------|
- -----------------------------------------------------------------------------------------------|
PM                                             ..                                             ..

- -------------------------------------------------------------------------------------------------|
- -------------------------------------------13----------------------------------------------13----|
- ----------14----------14----------------------------------14----------14-------------------------|
- -10-12-10----10-12-10----10-12-10/12-15p12----12-10-12-10----10-12-10----10-12-10/12-15p12----12-|
- -------------------------------------------------------------------------------------------------|
- -------------------------------------------------------------------------------------------------|
PM ........    ........    .....                ...........    ........    .....                ..

[Riff 3] - [00:36] - [00:49]
- ------------------------------------------------------------------|
- ------------------------------------------------------------------|
- ------------------------------------------------------------------|
- ------------------------------------------------------------------|
- -0---00000-00-00---000-0-0---00000---00000-00-00---000-0-0---0-0--|
- -0---00000-00-00---000-0-0---00000---00000-00-00---000-0-0---0-0--|
PM ................................................................

- ------------------------------------------------------------------|
- ------------------------------------------------------------------|
- ------------------------------------------------------------------|
- ------------------------------------------------------------------|
- -0---00000-00-00---000-0-0---00000---00000-00-00---000-0-0---0000-|
- -0---00000-00-00---000-0-0---00000---00000-00-00---000-0-0---0000-|
PM ................................................................

[Riff 4, Guitar 1 & 2] - [00:49] - [01:01]
- -----------------------------------------------------------------|
- -----------------------------------------------------------------|
- -----------------------------------------------------------------|
- -0---------0-0-----0-----0---0-0-0---------0-0-----0-----0---0-0-|
- -0---------0-0-----0-----0---0-0-0---------0-0-----0-----0---0-0-|
- -0---------0-0-----0-----0---0-0-0---------0-0-----0-----0---0-0-|
-
- -----------------------------------------------------------------|
- -----------------------6---6~--------------------------6---6~----|
- -----------------------9---9~--------------------------9---9~----|
- -----------------------------------------------------------------|
- -----------5/7-----7/8---------------------5/7-----7/8-----------|
- -0h7-5h8-0----10-0---------------0h7-5h8-0----10-0---------------|


- --------------------------------------------------------------------------|
- -----------------------------------------------------------------10101010-|
- -----------------------------------------------------------------9-9-9-9--|
- -0---------0-0-----0-----0---0-0-0---------0-0-----0-----0-0-3-3-8-8-8-8--|
- -0---------0-0-----0-----0---0-0-0---------0-0-----0-----0-0-3-3----------|
- -0---------0-0-----0-----0---0-0-0---------0-0-----0-----0-0-3-3----------|
-
- --------------------------------------------------------------------------|
- -----------------------6---6~----------------------------6-6--------------|
- -----------------------9---9~--------------------------9-----9-9----------|
- --------------------------------------------------------------------------|
- -----------5/7-----7/8---------------------5/7-----7/8--------------------|
- -0h7-5h8-0----10-0---------------0h7-5h8-0----10-0------------------------|


[Riff 5a] - [01:01] - [01:16]
- ------------------------------------------------------------13-------------------------------------|
- ---------10----------15-------------------------------------------1010101010101010101010101010-----|
- ---------9--------10----12----10----------------------10/12----14-9-9-9-9-9-9-9-9-9-9-9-9-9-9------|
- -8-5-7-0-8-0---12----------14----14-------------------------------8-8-8-8-8-8-8-8-8-8-8-8-8-8------|
- -8-5-7-0---0------------------------12-10-------10-13------------------------------------------0~--|
- -8-5-7-0---0------------------------------11-15------------------------------------------------0~--|

- ------------------------------------------------------------13-------------------------------------|
- ---------10----------15-------------------------------------------1010101010101010101010101010-----|
- ---------9--------10----12----10----------------------10/12----14-9-9-9-9-9-9-9-9-9-9-9-9-9-9------|
- -8-5-7-0-8-0---12----------14----14-------------------------------8-8-8-8-8-8-8-8-8-8-8-8-8-8------|
- -8-5-7-0---0------------------------12-10-------10-13----------------------------------------------|
- -8-5-7-0---0------------------------------11-15----------------------------------------------------|


[Riff 5b] - [01:01] - [01:16]
- ---------------------------------------------------------------------------------|
- -------------------7-------------------------------------------------------------|
- ---------------------5-----------------------------------------------------------|
- -8-5-7-0-------5-8-------------------------------8-8-8-8-8-8-8-8-8-8-8-8-8-8-----|
- -8-5-7-0-----------------00000-0-0-0-0-----0-00008-8-8-8-8-8-8-8-8-8-8-8-8-8-0~--|
- -8-5-7-0---0-------------00000-0-0-0-0-----0-00008-8-8-8-8-8-8-8-8-8-8-8-8-8-0~--|
PM                         ........................                            ...

- ---------------------------------------------------------------------------------|
- -------------------7-------------------------------------------------------------|
- ---------------------5-----------------------------------------------------------|
- -8-5-7-0-------5-8-------------------------------8-8-8-8-8-8-8-8-8-8-8-8-8-8-----|
- -8-5-7-0-----------------00000-0-0-0-0-----0-00008-8-8-8-8-8-8-8-8-8-8-8-8-8-----|
- -8-5-7-0---0-------------00000-0-0-0-0-----0-00008-8-8-8-8-8-8-8-8-8-8-8-8-8-----|
PM                         ........................

[Riff 6, Guitar 1 & 2] - [01:16] - [01:27]
- ------------------------------------------------------------------------------------------------------|
- -1010--1010--101010--1010--101010--1010--101010--1010--101010--1010--101010--1010--101010--1010--1010-|
- -9-9---9-9---9-9-9---9-9---9-9-9---9-9---9-9-9---9-9---9-9-9---9-9---9-9-9---9-9---9-9-9---9-9---9-9--|
- -8-8---8-8---8-8-8---8-8---8-8-8---8-8---8-8-8---8-8---8-8-8---8-8---8-8-8---8-8---8-8-8---8-8---8-8--|
- ------------------------------------------------------------------------------------------------------|
- ------------------------------------------------------------------------------------------------------|
-
- ------------------------------------------------------------------------------------------------------|
- ------------------------------------------------------------------------------------------------------|
- ------------------------------------------------------------------------------------------------------|
- -8-8---8-8---8-8-8---8-8---8-8-8---8-8---8-8-8---8-8---8-8-8---8-8---8-8-8---8-8---8-8-8---8-8---8-8--|
- -8-8---8-8---8-8-8---8-8---8-8-8---8-8---8-8-8---8-8---8-8-8---8-8---8-8-8---8-8---8-8-8---8-8---8-8--|
- -8-8---8-8---8-8-8---8-8---8-8-8---8-8---8-8-8---8-8---8-8-8---8-8---8-8-8---8-8---8-8-8---8-8---8-8--|


- -8-8-8-8-8-8-8-8--|
- -1010101010101010-|
- ------------------|
- ------------------|
- ------------------|
- ------------------|
-
- -8-8-8-8-8-8-8-8--|
- -1010101010101010-|
- ------------------|
- ------------------|
- ------------------|
- ------------------|

[Riff 7a] - [01:27] - [01:52]
- -----------------------------------------------------------------|
- -----------------------------------------------------------------|
- -----------------------------------------------------------------|
- -5-------------------------------8-------------------------------|
- -5(x32)--------------------------8(x32)--------------------------|
- -5-------------------------------8-------------------------------|

- --------------------------------------------------------------------------------|
- -----------------------------------------------------------------1010--101010---|
- -----------------------------------------------------------------9-9---9-9-9----|
- -5-------------------------------8-------------------------------8-8---8-8-8----|
- -5(x32)--------------------------8(x32)-----------------------------------------|
- -5-------------------------------8----------------------------------------------|

[Riff 7b] - [01:27] - [01:52----------------------------------------------------------------------| - [x2]
- ------------------------------------------------------------------------------------------------|
- ----13-------10------------------------------------13-------10---------------------18----18-----|
- -------10-------9-10/12-14----------------17\14-------10-------9-10/12-14-----------------------|
- -10-------10---------------12-------15-14-------10-------10---------------------17----17----17--|
- ------------------------------------------------------------------------------------------------|
- ------------------------------12/15---------------------------------------12/15-----------------|
PM ..       ..                           ..       ..       ..

- -------------------------------------------------------------------------------------------|
- ----13-------10------------------------------------13-------10-----------------------------|
- -------10-------9-10/12-14----------------17\14-------10-------9-10/12-14------------------|
- -10-------10---------------12-------15-14-------10-------10---------------12----------7----|
- -----------------------------------------------------------------------------8-7-8-10---10-|
- ------------------------------12/15--------------------------------------------------------|
PM ..       ..                           ..       ..       ..                  ........

[Riff 8, Guitar 1 & 2] - [01:52] - [02:14]
- --------------------------------------------------------------------|
- -----------6-----------------------8-8-8-8-8-8-8-8-1010101010101010-|
- -----------9-----------------------7-7-7-7-7-7-7-7-9-9-9-9-9-9-9-9--|
- -7-------------------5\3---3\2-----5-5-5-5-5-5-5-5-8-8-8-8-8-8-8-8--|
- ---------00--0-5h7h8-----0-5\4-0-0----------------------------------|
- ---7-8\5-00--0-----------0-----0-0----------------------------------|
PM         ..  .           .     ...
- --------------------------------------------------------------------|
- --------------------------------------------------------------------|
- --------------------------------------------------------------------|
- ---------------------------3\2-----8-8-8-8-8-8-8-8-5-5-5-5-5-5-5-5--|
- -0-0-0---00000-----0-----0-5\4-0-0-8-8-8-8-8-8-8-8-5-5-5-5-5-5-5-5--|
- -0-0-0---00000-----0-----0-----0-0-8-8-8-8-8-8-8-8-5-5-5-5-5-5-5-5--|
PM .........................     ...


- ----------------------------------------------------------------------------------------------------|
- -----------6-----------------------1010101010101010101010101010101010101010101010101010101010101010-|
- -----------9-----------------------9-9-9-9-9-9-9-9-9-9-9-9-9-9-9-9-9-9-9-9-9-9-9-9-9-9-9-9-9-9-9-9--|
- -7-------------------5\3---3\2-----8-8-8-8-8-8-8-8-8-8-8-8-8-8-8-8-8-8-8-8-8-8-8-8-8-8-8-8-8-8-8-8--|
- ---------00--0-5h7h8-----0-5\4-0-0------------------------------------------------------------------|
- ---7-8\5-00--0-----------0-----0-0------------------------------------------------------------------|
PM         ..  .           .     ...
- ----------------------------------------------------------------------------------------------------|
- ----------------------------------------------------------------------------------------------------|
- ----------------------------------------------------------------------------------------------------|
- ---------------------------3\2-----8-8-8-8-8-8-8-8-8-8-8-8-8-8-8-8-8-8-8-8-8-8-8-8-8-8-8-8-8-8-8-8--|
- -0-0-0---00000-----0-----0-5\4-0-0-8-8-8-8-8-8-8-8-8-8-8-8-8-8-8-8-8-8-8-8-8-8-8-8-8-8-8-8-8-8-8-8--|
- -0-0-0---00000-----0-----0-----0-0-8-8-8-8-8-8-8-8-8-8-8-8-8-8-8-8-8-8-8-8-8-8-8-8-8-8-8-8-8-8-8-8--|
PM .........................     ...


- -----------------------------------------------------------------|
- ---------------------------------10-10-1010-10-8~----------------|
- ---------------------------------x--x--x-x--x--x-----------------|
- -0--0--0-0--0--0~----------------7--7--7-7--7--5~----------------|
- -0--0--0-0--0--0~------------------------------------------------|
- -0--0--0-0--0--0~------------------------------------------------|
-
- -----------------------------------------------------------------|
- -----------------------------------------------------------------|
- -----------------------------------------------------------------|
- -0--0--0-0--0--0~----------------0--0--0-0--0--0~----------------|
- -0--0--0-0--0--0~----------------0--0--0-0--0--0~----------------|
- -0--0--0-0--0--0~----------------0--0--0-0--0--0~----------------|

Guitar 1 clean

Guitar 2 clean with heavy delay (try triplet or dotted 16th note delay at 160bpm)

[Riff 9, Guitar 1 & 2] - [02:14] - [02:42]
- -----------------------------------------------------------------|
- -----------------------------------------------------------------|
- -----------------------------------------------------------------|
- -7-7-7-7-7-7-7-7-5-5-5-5-101010103-3-3-3-3-3-3-3-3-3-3-3-3-3-3-3-|
- -5-5-5-5-5-5-5-5-3-3-3-3-8-8-8-8-1-1-1-1-1-1-1-1-1-1-1-1-1-1-1-1-|
- -----------------------------------------------------------------|
PM ...............................................................
- -----------------------------------------------------------------|
- -----------------------------------------------------------------|
- -----------------------------------------------------------------|
- -----------------------------------------------------------------|
- -----------------------------------------------------------------|
- -----------------------------------------------------------------|


- -----------------------------------------------------------------|
- -----------------------------------------------------------------|
- -----------------------------------------------------------------|
- -7-7-7-7-7-7-7-7-5-5-5-5-10101010--------------------------------|
- -5-5-5-5-5-5-5-5-3-3-3-3-8-8-8-8-5-5-5-5-5-5-5-5-5-5-5-5-5-5-5-5-|
- ---------------------------------5-5-5-5-5-5-5-5-5-5-5-5-5-5-5-5-|
PM ...............................................................
- -----------------------------------------------------------------|
- -13-15p13h15-13h15-13h15-13h15---13-15p13h15-13h15-13h15-13h15---|
- -----------------------------------------------------------------|
- -----------------------------------------------------------------|
- -----------------------------------------------------------------|
- -----------------------------------------------------------------|


- -----------------------------------------------------------------|
- -----------------------------------------------------------------|
- -----------------------------------------------------------------|
- -7-7-7-7-7-7-7-7-5-5-5-5-101010103-3-3-3-3-3-3-3-3-3-3-3-3-3-3-3-|
- -5-5-5-5-5-5-5-5-3-3-3-3-8-8-8-8-1-1-1-1-1-1-1-1-1-1-1-1-1-1-1-1-|
- -----------------------------------------------------------------|
PM ...............................................................
- -------17------17------15--17--------13p10-------------------------|
- -------------------15--------------------------15--13--15----13/15-|
- -----------------------------------------------------------12------|
- -------------------------------------------------------------------|
- -------------------------------------------------------------------|
- -------------------------------------------------------------------|


- ------------------------------------------------------------------------------------|
- ------------------------------------------------------------------------------------|
- ------------------------------------------------------------------------------------|
- -7-7-7-7-7-7-7-7-5-5-5-5-10101010---------------------------------------------------|
- -5-5-5-5-5-5-5-5-3-3-3-3-8-8-8-8-5-5-5-5-5-5-5-5-5-5-5-5-5-5-5-5--------------------|
- ---------------------------------5-5-5-5-5-5-5-5-5-5-5-5-5-5-5-5--------------------|
PM ...............................................................
- -----20p17-----17------15--17--------------------------------15/17~-----------------|
- -------------------15----------15--13--15--13--15--13--15--13-----------------------|
- ------------------------------------------------------------------------------------|
- ------------------------------------------------------------------------------------|
- ------------------------------------------------------------------------------------|
- ------------------------------------------------------------------------------------|


[Riff 10, Guitar 1 & 2] - [02:42] - [03:08]
- ------------------------------------------------------------------|
- ------------------------------------------------------------------|
- ------------------------------------------------------------------|
- -8-8-8-8-8-8-8-8-8-8-8-8-8-8-8-8-10101010101010101010101010101010-|
- -8-8-8-8-8-8-8-8-8-8-8-8-8-8-8-8-10101010101010101010101010101010-|
- -8-8-8-8-8-8-8-8-8-8-8-8-8-8-8-8-10101010101010101010101010101010-|
-
- -8-8-8-8-8-8-8-8-8/10101010101010---------------------------------|
- -x-x-x-x-x-x-x-x-x-x-x-x-x-x-x-x----------------------------------|
- -5-5-5-5-5-5-5-5-5/7-7-7-7-7-7-7-9-9-9-9-9-9-9/1414141414141414\--|
- ---------------------------------x-x-x-x-x-x-x-x-x-x-x-x-x-x-x----|
- ---------------------------------7-7-7-7-7-7-7/1212121212121212\--|
- ------------------------------------------------------------------|


- ------------------------------------------------------------------|
- ------------------------------------------------------------------|
- ------------------------------------------------------------------|
- -5-5-5-5-5-5-5-5-5-5-5-5-5-5-5-5-5-5-5-5-5-5-5-5-5-5-5-5-7-7-7-7--|
- -5-5-5-5-5-5-5-5-5-5-5-5-5-5-5-5-5-5-5-5-5-5-5-5-5-5-5-5-7-7-7-7--|
- -5-5-5-5-5-5-5-5-5-5-5-5-5-5-5-5-5-5-5-5-5-5-5-5-5-5-5-5-7-7-7-7--|
-
- -8-8-8-8-8-8-8-8-8/10101010101010---------------------------------|
- -x-x-x-x-x-x-x-x-x-x-x-x-x-x-x-x-8-8-8/1010101010-----------------|
- -5-5-5-5-5-5-5-5-5/7-7-7-7-7-7-7-x-x-x-x-x-x-x-x-9-9-9/1010101010-|
- ---------------------------------5-5-5/7-7-7-7-7-x-x-x-x-x-x-x-x--|
- -------------------------------------------------7-7-7/8-8-8-8-8--|
- ------------------------------------------------------------------|


- ------------------------------------------------------------------|
- ------------------------------------------------------------------|
- ------------------------------------------------------------------|
- -8-8-8-8-8-8-8-8-8-8-8-8-8-8-8-8-10101010101010101010101010101010-|
- -8-8-8-8-8-8-8-8-8-8-8-8-8-8-8-8-10101010101010101010101010101010-|
- -8-8-8-8-8-8-8-8-8-8-8-8-8-8-8-8-10101010101010101010101010101010-|
-
- -8-8-8-8-8-8-8-8-8/10101010101010---------------------------------|
- -x-x-x-x-x-x-x-x-x-x-x-x-x-x-x-x----------------------------------|
- -5-5-5-5-5-5-5-5-5/7-7-7-7-7-7-7-9-9-9-9-9-9-9/1414141414141414\--|
- ---------------------------------x-x-x-x-x-x-x-x-x-x-x-x-x-x-x----|
- ---------------------------------7-7-7-7-7-7-7/1212121212121212\--|
- ------------------------------------------------------------------|


- ------------------------------------------------------------------|
- ------------------------------------------------------------------|
- ------------------------------------------------------------------|
- -5-5-5-5-5-5-5-5-5-5-5-5-5-5-5-5-5-5-5-5-5-5-5-5-5-5-5-5-7-7-7-7--|
- -5-5-5-5-5-5-5-5-5-5-5-5-5-5-5-5-5-5-5-5-5-5-5-5-5-5-5-5-7-7-7-7--|
- -5-5-5-5-5-5-5-5-5-5-5-5-5-5-5-5-5-5-5-5-5-5-5-5-5-5-5-5-7-7-7-7--|
-
- -8-8-8-8-8-8-8-8-8/10101010101010---------------------------------|
- -x-x-x-x-x-x-x-x-x-x-x-x-x-x-x-x-8-8-8/10101010101010101010101010-|
- -5-5-5-5-5-5-5-5-5/7-7-7-7-7-7-7-x-x-x-x-x-x-x-x-x-x-x-x-x-x-x-x--|
- ---------------------------------5-5-5/7-7-7-7-7-7-7-7-7-7-7-7-7--|
- ------------------------------------------------------------------|
- ------------------------------------------------------------------|

3/4 Time

[Riff 11, Guitar 1 & 2] - [03:08] - [03:36]
- -------------------------------------------------------------------------------------------------|
- -------------------------------------------------------------------------------------------------|
- -------------------------------------------------------------------------------------------------|
- -8-8-8-8-8-8-8-8-8-8-8-8-1010101010101010101010105-5-5-5-5-5-5-5-5-5-5-5-5-5-5-5-5-5-5-5-5-5-5-5-|
- -8-8-8-8-8-8-8-8-8-8-8-8-1010101010101010101010105-5-5-5-5-5-5-5-5-5-5-5-5-5-5-5-5-5-5-5-5-5-5-5-|
- -8-8-8-8-8-8-8-8-8-8-8-8-1010101010101010101010105-5-5-5-5-5-5-5-5-5-5-5-5-5-5-5-5-5-5-5-5-5-5-5-|
-
- -17-------------\15-/17--20-----/22--17---------\12----------15----------------------17----15------|
- -------------------------------------------------------------------------13---/15------------13/15-|
- ---------------------------------------------------------------------------------------------------|
- ---------------------------------------------------------------------------------------------------|
- ---------------------------------------------------------------------------------------------------|
- ---------------------------------------------------------------------------------------------------|
AP .................................................................................................


- -------------------------------------------------------------------------------------------------|
- -------------------------------------------------------------------------------------------------|
- -------------------------------------------------------------------------------------------------|
- -8-8-8-8-8-8-8-8-8-8-8-8-1010101010101010101010105-5-5-5-5-5-5-5-5-5-5-5-5-5-5-5-5-5-5-5-5-5-5-5-|
- -8-8-8-8-8-8-8-8-8-8-8-8-1010101010101010101010105-5-5-5-5-5-5-5-5-5-5-5-5-5-5-5-5-5-5-5-5-5-5-5-|
- -8-8-8-8-8-8-8-8-8-8-8-8-1010101010101010101010105-5-5-5-5-5-5-5-5-5-5-5-5-5-5-5-5-5-5-5-5-5-5-5-|
-
- -17-------------\15-/17--20-----/22--17---------\12----------15----------------------17----15------|
- -------------------------------------------------------------------------13---/15------------13/15-|
- ---------------------------------------------------------------------------------------------------|
- ---------------------------------------------------------------------------------------------------|
- ---------------------------------------------------------------------------------------------------|
- ---------------------------------------------------------------------------------------------------|
AP .................................................................................................


- -------------------------------------------------------------------------------------------------|
- -------------------------------------------------------------------------------------------------|
- -------------------------------------------------------------------------------------------------|
- -8-8-8-8-8-8-8-8-8-8-8-8-10~---------------------------------------------------------------------|
- -8-8-8-8-8-8-8-8-8-8-8-8-10~---------------------------------------------------------------------|
- -8-8-8-8-8-8-8-8-8-8-8-8-10~---------------------------------------------------------------------|
-
- -17-------------\15-/17-/20~---------------------------------------------------------------------|
- -------------------------------------------------------------------------------------------------|
- -------------------------------------------------------------------------------------------------|
- -------------------------------------------------------------------------------------------------|
- -------------------------------------------------------------------------------------------------|
- -------------------------------------------------------------------------------------------------|
AP ........................

[Synth] - [03:36] - [04:43]

[Symbols]

PM... Palm Mute notes with (...) under them
AP... Alternate Pick notes with (...) under them
h     Hammer On
p     Pull Off
[ ]   Harmonic
/     Slide Up
\     Slide Down
x     Dead Note
b     Bend
p     Pre-Bend
r     Release Bend
(x )  Play Notes x amount of times
~     Let Ring
/ 3 \ Notes are triplets (3 notes in the space of two)

:)
Добавлено: 12.12.2015
Другие материалы по этой песне:

Страница создана 12.12.2015
http://primanota.ru/house-vs-hurricane/iii-nevermore-chords.htm
Привет, Гость.
Предлагаем пройти революционный курс по гитаре.
Подарок от PrimaNota.Ru, забирай!