PrimaNota.ru - самый крупный в мире бесплатный архив песенных текстов, аккордов, табулатур и нот


House Vs Hurricane - Ii Softlight - таба, видео

Регистрация Запомнить меня
Войти через:  Facebook Google Twitter Vk Yandex Mail.ru

House Vs Hurricane - Ii Softlight - таба, видео

Печатать
Просмотров: 43
[II. Softlight]
[Perspectives]
[House vs Hurricane]

Tuning: CGCFAD (Drop C)
joshuaoliveira@hotmail.com

[Synth] - [00:00] - [00:11]

[Riff 1a] - [00:11] - [00:39----------------------------------------| - [x3]
- -13-12-----------13-12-----------13-12-----------13-12------------|
- -------13--------------13--------------13--------------13---------|
- ----------12--------------12--------------12--------------12------|
- ------------------------------------------------------------------|
- ------------------------------------------------------------------|
- ------------------------------------------------------------------|

- -------12\10-----------12\10-----------12\10-----------12\10-----|
- ----13--------------13--------------13--------------13-----------|
- -14--------------14--------------14--------------14--------------|
- -----------------------------------------------------------------|
- -----------------------------------------------------------------|
- -----------------------------------------------------------------|

[Riff 1b] - [00:20] - [00:39----------------------------------------------------------------------------------|
- ------------------------------------------------------------10~-10p8----10~----10p8----8~-------8-12\10-----|
- -------------6-----------------------6---6/8\6~----------------------10-------------10-------10---------10--|
- -------5h7p5-7-------------------7p5-7---7/9\7~--9h10/12\10~------------------------------------------------|
- -----------------------------5h7----------------------------------------------------------------------------|
- ------------------------------------------------------------------------------------------------------------|
- ------------------------------------------------------------------------------------------------------------|
 - [x2]

- ------------------------------------------------------------10~-10p8----10~-------------------8~-----------|
- -------------6-----------------------6---6/8\6~----------------------10--------8h10p8-------------10~-8~---|
- -------5h7p5-7-------------------7p5-7---7/9\7~--9h10/12\10~--------------------------10p9h10--------------|
- -----------------------------5h7---------------------------------------------------------------------------|
- -----------------------------------------------------------------------------------------------------------|
- -----------------------------------------------------------------------------------------------------------|

[Riff 2a] - [00:39] - [01:03]
- -------------------------------------------------------------------------------|
- -------------------------------------------------------------------------------|
- -10(x32)------------/12(x32)------------/14(x32)------------\9(x32)------------|
- -------------------------------------------------------------------------------|
- -------------------------------------------------------------------------------|
- -------------------------------------------------------------------------------|
AP .............................................................................

- -----------------------------------------------------------------------------------------------------------|
- -----------------------------------------------------------------15----------------------------------------|
- -10(x32)------------/12(x32)------------/14(x24)---------14\-/12~---12---------14/17----------------14\12~-|
- -----------------------------------------------------------------------15~--15-------17/19-------15--------|
- -------------------------------------------------------------------------------------------20\17-----------|
- -----------------------------------------------------------------------------------------------------------|
AP .......................................................

[Riff 2b] - [00:39] - [01:03-------------------------------------------------------------| - [x2]
- -----------------------------------10-------------12-------------12-------12-----------|
- ---------8~---------8/10\8~--13-------13~---15-------15----15-------15-------15----15--|
- ----7----------7----------------12-------------14-------14----14-------14-------14-----|
- -10---10---------10--------------------------------------------------------------------|
- ---------------------------------------------------------------------------------------|
- ---------------------------------------------------------------------------------------|

- -------------17-------17-------17-------17-------------17----------------------------------------|
- /17-15----15----15-------15-------15-------15----15-------15----15----17/18-13/15----------13\10-|
- ------/17----------17-------17-------17-------17----17-------17----17-------------14\12/14-------|
- -------------------------------------------------------------------------------------------------|
- -------------------------------------------------------------------------------------------------|
- -------------------------------------------------------------------------------------------------|

[Riff 3a] - [01:03] - [01:28]
- -17(x28)---------------------\15(x4)-20(x8)-/22(x4)-17(x16)---------15(x4)-|
- ---------------------------------------------------------------------------|
- ---------------------------------------------------------------------------|
- ---------------------------------------------------------------------------|
- ---------------------------------------------------------------------------|
- ---------------------------------------------------------------------------|

- -17(x28)---------------------\15(x4)-20(x8)--17(x4)\15(x12)----\12(x8)-----|
- ---------------------------------------------------------------------------|
- ---------------------------------------------------------------------------|
- ---------------------------------------------------------------------------|
- ---------------------------------------------------------------------------|
- ---------------------------------------------------------------------------|

- -17(x28)---------------------\15(x4)-20(x8)-/22(x4)-17(x16)---------15(x4)-|
- ---------------------------------------------------------------------------|
- ---------------------------------------------------------------------------|
- ---------------------------------------------------------------------------|
- ---------------------------------------------------------------------------|
- ---------------------------------------------------------------------------|

- -17(x28)---------------------\15(x4)-20(x8)--17(x4)\15(x12)----\12(x8)-----17~--------|
- --------------------------------------------------------------------------------------|
- --------------------------------------------------------------------------------------|
- --------------------------------------------------------------------------------------|
- --------------------------------------------------------------------------------------|
- --------------------------------------------------------------------------------------|

[Riff 3b] - [01:03] - [01:39]
- -12---12-12---12---12-12---12-12---12-12---12---12-12---12---12-12---12-12---12-12---|
- -13---13-13---13---13-13---13-13---13-13---13---13-13---13---13-13---13-13---13-13---|
- -14---14-14---14---14-14---14-14---14-14---14---14-14---14---14-14---14-14---14-14---|
- -------------------------------------------------------------------------------------|
- -------------------------------------------------------------------------------------|
- -------------------------------------------------------------------------------------|

- -17---17-17---17---17-17---17-17---17-17---17---17-17---17---17-17---17-17---17-17---|
- -15---15-15---15---15-15---15-15---15-15---15---15-15---15---15-15---15-15---15-15---|
- -17---17-17---17---17-17---17-17---17-17---17---17-17---17---17-17---17-17---17-17---|
- -------------------------------------------------------------------------------------|
- -------------------------------------------------------------------------------------|
- -------------------------------------------------------------------------------------|

- -12121212~--12121212~--1212121212~--12121212~--12121212~--1212121212~---|
- -13131313~--13131313~--1313131313~--13131313~--13131313~--1313131313~---|
- -14141414~--14141414~--1414141414~--14141414~--14141414~--1414141414~---|
- ------------------------------------------------------------------------|
- ------------------------------------------------------------------------|
- ------------------------------------------------------------------------|

- -17171717~--17171717~--1717171717~--17171717~--17171717~--1717171717~--|
- -15151515~--15151515~--1515151515~--15151515~--15151515~--1515151515~--|
- -17171717~--17171717~--1717171717~--17171717~--17171717~--1717171717~--|
- -----------------------------------------------------------------------|
- -----------------------------------------------------------------------|
- -----------------------------------------------------------------------|

- -12121212~--12121212~--1212121212~--12121212~--12121212~--1212121212~---|
- -13131313~--13131313~--1313131313~--13131313~--13131313~--1313131313~---|
- -14141414~--14141414~--1414141414~--14141414~--14141414~--1414141414~---|
- ------------------------------------------------------------------------|
- ------------------------------------------------------------------------|
- ------------------------------------------------------------------------|

- -17171717~--17171717~--1717171717~--17171717~--17171717~--1717171717~--|
- -15151515~--15151515~--1515151515~--15151515~--15151515~--1515151515~--|
- -17171717~--17171717~--1717171717~--17171717~--17171717~--1717171717~--|
- -----------------------------------------------------------------------|
- -----------------------------------------------------------------------|
- -----------------------------------------------------------------------|

[Riff 3c] - [01:28] - [01:39]
- -------------10-------------------------------------------10-------------------------------|
- -------13-------13----13-------13-------15----------13-------13----13-------13-------15----|
- -10/12----12-------12-------12----12/14-------10/12----12-------12-------12----12/14-------|
- -------------------------------------------------------------------------------------------|
- -------------------------------------------------------------------------------------------|
- -------------------------------------------------------------------------------------------|

- -17-------------------------------------17-------20(x16)--------\12(x16)---------|
- ----15----------------------------13/15----15------------------------------------|
- -------17----------14----14\12/14-------------17---------------------------------|
- ----------12----12----12---------------------------------------------------------|
- -------------15------------------------------------------------------------------|
- ---------------------------------------------------------------------------------|

[Symbols]

PM... Palm Mute notes with (...) under them
AP... Alternate Pick notes with (...) under them
h     Hammer On
p     Pull Off
[ ]   Harmonic
/     Slide Up
\     Slide Down
x     Dead Note
b     Bend
p     Pre-Bend
r     Release Bend
(x )  Play Notes x amount of times
~     Let Ring
/ 3 \ Notes are triplets (3 notes in the space of two)

:)
Добавлено: 12.12.2015
Вам также может быть интересно:
Другие материалы по этой песне:

Страница создана 12.12.2015
http://primanota.ru/house-vs-hurricane/ii-softlight-chords.htm
Привет, Гость.
Предлагаем пройти революционный курс по гитаре.
Подарок от PrimaNota.Ru, забирай!