PrimaNota.ru - самый крупный в мире бесплатный архив песенных текстов, аккордов, табулатур и нот


House Vs Hurricane - I. Sinister, In Many Forms - таба, видео

Регистрация Запомнить меня
Войти через:  Facebook Google Twitter Vk Yandex Mail.ru

House Vs Hurricane - I. Sinister, In Many Forms - таба, видео

Печатать
Просмотров: 131
[I. Sinister, In Many Forms]
[Perspectives]
[House vs Hurricane]

Tuning: CGCFAD
joshuaoliveira@hotmail.com

[Riff 1, Guitar 1 & 2] - [00:00] - [00:05]
- -----------------------------------------------------
- -----------------9-9-9-9-10~-------------------------
- -----------------6-6-6-6-7~--------------------------
- -0-0-0-0-0-0-0-0-7-7-7-7-8~--------------------------
- -0-0-0-0-0-0-0-0---------------------------------0---
- -0-0-0-0-0-0-0-0---------------------------------0---
PM                                                 .
- -----------------------------------------------------
- -------------------------10~-------------------------
- -9-9-9-9-9-9-9-9-9-9-9-9-9~--------------------------
- -x-x-x-x-x-x-x-x-7-7-7-7-0~--------------------------
- -7-7-7-7-7-7-7-7-8-8-8-8-8~----------------------0---
- -------------------------------------------------0---
PM                                                 .

[Riff 2a, Guitar 1 & 2] - [00:05] - [00:28] - [x2]
- ------------------------------------------------------------------------------12-------------17\-
- -10------------------------10/13-15-13-------13-13-13-13-------13----------------13-------15-----
- ----9-10/12-10----10-------------------12/14----14-14-14-16p14----------------------14/17--------
- ---------------12----12/14----------------------15-15-15----------15p14-12h15--------------------
- -------------------------------------------------------------------------------------------------
- -------------------------------------------------------------------------------------------------


- -------------------------13(x6)------17(x6)------18(x8)------------------------------------------
- -10(x6)------15(x6)------------------------------------------------------------------------------
- -----------------------------------------------------------------10101010101010109-9-9-9-9-9-9-9-
- -----------------------------------------------------------------x-x-x-x-x-x-x-x-x-x-x-x-x-x-x-x-
- -----------------------------------------------------------------8-8-8-8-8-8-8-8-7-7-7-7-7-7-7-7-
- -------------------------------------------------------------------------------------------------
-
- -------------------------17(x6)------20(x6)------22(x8)------------------------------------------
- -------------------------------------------------------------------------------------------------
- -------------------------------------------------------------------------------------------------
- -------------------------------------------------------------------------------------------------
- -------------------------------------------------------------------------------------------------
- -------------------------------------------------------------------------------------------------


[Riff 2b] - [00:05] - [00:28] - [x2]
- ------------------------------------------------------------------------------------
- ------------------------------------------------------------------------------------
- -----------------------------------14----------13--13---------------7---------10/12-
- --------10/12-------------------12----15-10h12-10--10--7----------7---10-7/10-------
- -8------------12-12\10-12-12/15----------------12--12----10-8p7-8-------------------
- ---7/10-----------------------------------------------------------------------------

- ---------------------------------------------------------------------------------
- -13-13-13-13-13-13-13-13-13-13-13-13-13-13-13-13-6-6-6-6-6-6-6-6-6-6-6-6-6-6-6-6-
- -10-10-10-10-10-10-10-10-10-10-10-10-10-10-10-10-9-9-9-9-9-9-9-9-9-9-9-9-9-9-9-9-
- -12-12-12-12-12-12-12-12-12-12-12-12-12-12-12-12-7-7-7-7-7-7-7-7-7-7-7-7-7-7-7-7-
- -------------------------------------------------8-8-8-8-8-8-8-8-8-8-8-8-8-8-8-8-
- ---------------------------------------------------------------------------------


[Riff 3] - [00:30] - [00:54] - [x4]
- ------------------------------------------------------------------
- ------------------------------------------------------------------
- ------------------------------------------------------------------
- ------------------------------------------------------------------
- -00000-------0---0---000---0---0-0-----------0------00-0-00000000-
- -00000-------0---0---000---0---0-0-----------0------00-0-00000000-
PM ................................................................


[Riff 4] - [00:42] - [00:54] - [x2]
- -----------------------------------------------------------5/8--------
- -------------------6-----10----------------------5-----6--------------
- -7h10----------------9-7----9-------7h10-----------7/9---5-----7-10p9-
- ------------7---------------------7------------7----------------------
- ------8\5-8---8/10------------5/8--------8\5-8------------------------
- ----------------------------------------------------------------------


[Riff 5, Guitar 1 & 2] - [00:54] - [01:01]
- -12-12-12-12-12-12-12-12-8--8--8--8--8--8--8--8--12-12-12-12-12-12-12-12-12-12-12-12-12-----------
- -8--8--8--8--8--8--8--8--8--8--8--8--8--8--8--8--13-13-13-13-13-13-13-13-13-13-13-13-13-----------
- -10-10-10-10-10-10-10-10-10-10-10-10-10-10-10-10-12-12-12-12-12-12-12-12-12-12-12-12-12-----------
- --------------------------------------------------------------------------------------------------
- --------------------------------------------------------------------------------------------------
- --------------------------------------------------------------------------------------------------
-
- ----------------------------------------------------------------------------------------------12\-
- -8--8--8--8--8--8--8--8--8--8--8--8--8--8--8--8--13-13-13-13-13-13-13-13-13-13-13-13-13-----------
- -10-10-10-10-10-10-10-10-10-10-10-10-10-10-10-10-12-12-12-12-12-12-12-12-12-12-12-12-12----10-----
- -10-10-10-10-10-10-10-10-10-10-10-10-10-10-10-10-10-10-10-10-10-10-10-10-10-10-10-10-10-12--------
- --------------------------------------------------------------------------------------------------
- --------------------------------------------------------------------------------------------------
PM                                                                                        .....


- -------------------------------------------------
- -------------------------------------------------
- -------------------------------------------------
- -----0~------------------------------------------
- -00000~------0-----------------------------------
- -00000~------0-----------------------------------
PM ....


[Riff 6a] - [01:04] - [01:19]
- ---------------------------------------------------------------------------
- ---------------------------------------------------------------------------
- ---------------------------------------------------------------------------
- -8------5------0---------------8------5------0---------------8------5------
- -8(x8)--5(x8)--0(x16)----------8(x8)--5(x8)--0(x16)----------8(x8)--5(x8)--
- -8------5------0---------------8------5------0---------------8------5------


[Riff 6b] - [01:04] - [01:19]
- ---------------------------------------17-18-17-------------------------------------
- ---------13/15----------15-18-15----15----------------------------------------------
- -10------------12/14-17----------17-------------------------------------------------
- ----7/10-----------------------------------------------7-----------------7----------
- ----------------------------------------------------10---10-8-5~------10---10-8-5~--
- ------------------------------------------------0-7---------------0-7---------------

- ---------------------------------------17-18-17-------------------------------------
- ---------13/15----------15-18-15----15----------------------------------------------
- -10------------12/14-17----------17-------------------------------------------------
- ----7/10-----------------------------------------------7-----------------7----------
- ----------------------------------------------------10---10-8-5~------10---10-8-5~--
- ------------------------------------------------0-7---------------0-7---------------

- ------------------------------------------------
- ---------13/15----------15-18-15----15----------
- -10------------12/14-17----------17-------------
- ----7/10-------------------------------17-15-17-
- ------------------------------------------------
- ------------------------------------------------

riff 6b is really hard to hear, I'm open to suggestions :P


[Riff 7a, Guitar 1 & 2] - [01:19] - [01:33]
- -----------------------------------------------10101010----------
- -----------------------------------------------10101010----------
- -----------------------------------------------7-7-7-7-----------
- ---------------------7-------------------------------------------
- -00000-------000-3-----10--8p5-778-8---------8---------7-7---777-
- -00000-------000-3-------------778-8---------8---------7-7---777-
PM ................              ...............         .........


- ------------------------------------10101010-------------------------------------
- ---5-6/8----------------------------10101010-------------------------------------
- -7----------------------------------7-7-7-7--------------------------------------
- ----------7---------7--------------------------------------------0~--------------
- --------8---000-3-----10--8p5-778-8----------8---------7-7---777-0~--------------
- ------------000-3-------------778-8----------8---------7-7---777-0~--------------
PM            .....             .....          ...................  
- --------------------------------
- ------------------10------------
- --------------------9----------- this little section is overdubbed between
- -----------------8---10/12-10--- the palm muted notes behind the first guitar
- ---------------10------------12- where it lines up
- --------------------------------   


[Riff 7b] - [01:19] - [01:33]
- -------------------------------------------10101010--------------10----
- ---5-6/8--------------10-------------------10101010--------------10----
- -7-----------------------9-------10h12-----7-7-7-7---------------7-----
- -----------7--------8------10/12---------------------------------------
- ---------8---000-10--------------------8-8---------8---------7-7---777-
- -------------000-----------------------8-8---------8---------7-7---777-
PM             ...                       ...         .         ...   ... 

- -----------------------------------------------10101010-----10--------------------
- -----------------------------8~----------------10101010-----10--------------------
- -----------------------------10~---------------7-7-7-7------7---------------------
- ------------------------------------------------------------------0~--------------
- -00000-------000-3---------------8-8---------8----------7-7---777-0~--------------
- -00000-------000-3---------------8-8---------8----------7-7---777-0~--------------
PM .................               .............          ...   ... 


[Riff 8] - [01:33] - [01:39]
- ----------------------------------------------------------------------
- ----------------------------------------------------------------------
- ----------------------------------------------------------------------
- -0-----------0--0--0---------------0-----------0--0--0----------------
- -0-----------0--0--0-------000000000-----------0--0--0-------00000000-
- -0-----------0--0--0-------000000000-----------0--0--0-------00000000-
PM                           ........                          ........

[Riff 9] - [01:39] - [01:46]
- --------------------------------------------------------------------------
- --------------------------------------------------------------------------
- --------------------------------------------------------------------------
- --------------------------------------------------------------------------
- -3-----------3--3--3-------333333333-----------3--3--3-------33333333-----
- -2-----------2--2--2-------222222222-----------2--2--2-------22222222-----
PM ....................................................................

[Riff 10] - [01:46] - [01:53]
- ----------------------------------------------------------------
- ----------------------------------------------------------------
- ----------------------------------------------------------------
- -0-----------0--0--0---------------0-----------0--0--0----------
- -0-----------0--0--0-------000000000-----------0--0--0-------00-
- -0-----------0--0--0-------000000000-----------0--0--0-------00-
PM                           ........                          ..

[Riff 11] - [01:53] - [02:05] - [x2]
- -0~------------------------------0~-----------------------
- -6~------------------------------6~-----------------------
- -7~------------------------------7~-----------------------
- -7~------------------------------7~-----------------------
- -0~------------------------------0~--------------00000000-
- -0~------------------------------0~--------------00000000-
PM                                                 ........


[Riff 12a] - [02:05] - [02:31]
- ------------------------------------------------------------------
- ------------------------------------------------------------------
- ------------------------------------------------------------------
- ------------------------------------------------------------------
- -0---0-----00-00-0---0---000000000---0-----00-00-0---0---00000000-
- -0---0-----00-00-0---0---000000000---0-----00-00-0---0---00000000-
PM ................................................................

- -----------------------------------------------------------------------
- -----------------------------------------------------------------------
- -----------------------------------------------------------------------
- -----------------------------------------------------------------------
- -0---0-----00-00-0---0---000000000---0-----00-00-0---0---000000000-----
- -1---1-----11-11-1---1---111111111---1-----11-11-1---1---111111111-----
PM ................................................................. 

- ------------------------------------------------------------------
- ------------------------------------------------------------------
- ------------------------------------------------------------------
- ------------------------------------------------------------------
- -0---0-----00-00-0---0---000000000---0-----00-00-0---0---00000000-
- -0---0-----00-00-0---0---000000000---0-----00-00-0---0---00000000-
PM ................................................................

- ------------------------------------------------------------------
- ------------------------------------------------------------------
- ------------------------------------------------------------------
- ------------------------------------------------------------------
- -0---0-----00-00-0---0---000000000---0-----00-00-0---0---00000000-
- -1---1-----11-11-1---1---111111111---1-----11-11-1---1---11111111-
PM ................................................................

[Riff 12b] - [02:05] - [02:31] - [x2]
- -------17----------------------10----10-------15/17----------------12-------------------10/12----
- ----------------------------11----13----10/13-------15----------------13/15----------11----------
- -10/14----14-17\14-12h14-12----------------------------14-15\12-15----------14\10-------------15-
- ----------------------------------------------------------------------------------14-------------
- -------------------------------------------------------------------------------------------------
- -------------------------------------------------------------------------------------------------

- -------17----------------------10----10-------15/17----------------12---------------------------------
- ----------------------------11----13----10/13-------15----------------13/15-------------11/15---------
- -10/14----14-17\14-12h14-12----------------------------14-15\12-15----------14\10----10-------14------
- ----------------------------------------------------------------------------------14------------------
- ------------------------------------------------------------------------------------------------------
- ------------------------------------------------------------------------------------------------------

- -------17----------------------10----10-------15/17----------------12-------------------10/12----
- ----------------------------11----13----10/13-------15----------------13/15----------11----------
- -10/14----14-17\14-12h14-12----------------------------14-15\12-15----------14\10-------------15-
- ----------------------------------------------------------------------------------14-------------
- -------------------------------------------------------------------------------------------------
- -------------------------------------------------------------------------------------------------

- -------17----------------------10----10-------15/17----------------12----------------------------
- ----------------------------11----13----10/13-------15----------------13/15-------------11/15----
- -10/14----14-17\14-12h14-12----------------------------14-15\12-15----------14\10----10-------14-
- ----------------------------------------------------------------------------------14-------------
- -------------------------------------------------------------------------------------------------
- -------------------------------------------------------------------------------------------------


[Riff 13] - [02:31] - [02:37]
- -5--5--5-5--5--5-5--5--5-3--3--3-------------------------
- -5--5--5-5--5--5-5--5--5-5--5--5-------------------------
- ---------------------------------------------------------
- ---------------------------------0~----------------------
- ---------------------------------0~----------------------
- ---------------------------------0~----------------------

[Riff 14] - [02:37] - [02:58]
- -3---3-----3---3-----3-3-----3---3-3-3---3-----3---3-----3-3-----3---3-3-
- -5---5-----5---5-----5-5-----5---5-5-5---5-----5---5-----5-5-----5---5-5-
- -5---5-----5---5-----5-5-----5---5-5-5---5-----5---5-----5-5-----5---5-5-
- -3---3-----3---3-----3-3-----3---3-3-3---3-----3---3-----3-3-----3---3-3-
- -3---3-----3---3-----3-3-----3---3-3-3---3-----3---3-----3-3-----3---3-3-
- -3---3-----3---3-----3-3-----3---3-3-3---3-----3---3-----3-3-----3---3-3-

- ---------------------3-3-----3---3-3-3---3-----3---3-----3-3-----3---3-3-
- -5---5-----5---5-----5-5-----5---5-5-5---5-----5---5-----5-5-----5---5-5-
- -2---2-----2---2-----5-5-----5---5-5-5---5-----5---5-----5-5-----5---5-5-
- -2---2-----2---2-----3-3-----3---3-3-3---3-----3---3-----3-3-----3---3-3-
- -0---0-----0---0-----3-3-----3---3-3-3---3-----3---3-----3-3-----3---3-3-
- ---------------------3-3-----3---3-3-3---3-----3---3-----3-3-----3---3-3-

- -------------------------------------------------------------------------
- -------------------------------------------------------------------------
- -------------------------------------------------------------------------
- -0~----------------------------------------------------------------------
- -0~----------------------------------------------------------------------
- -0~----------------------------------------------------------------------


[Riff 14] - [02:41] - [02:58]
- ----------------------------------12----------------------12-------------
- -13----------------15/17-13----------------13----------------------13----
- ----14----14-12-14----------------------------14/17-------------------14/
- -------14-------------------12-14----14-15----------12-14----14-15-------
- -------------------------------------------------------------------------
- -------------------------------------------------------------------------
PM       ..    ..             .....    .....          .....    .....

- ----------12----------------------12-------------------------------------
- -------------------13----------------------13----------------------------
- /17-------------------14/17-------------------14/17~---------------------
- ----12-14----14-15----------12-14----14-15-------------------------------
- -------------------------------------------------------------------------
- -------------------------------------------------------------------------
PM    .....    .....          .....    ..... 

[Symbols]

PM... Palm Mute notes with (...) under them
h     Hammer On
p     Pull Off
/     Slide Up
\     Slide Down
x     Dead Note
(x )  Play Notes x amount of times
~     Let Ring

:)
Добавлено: 13.10.2015
Другие материалы по этой песне:

Страница создана 13.10.2015
http://primanota.ru/house-vs-hurricane/i-sinister-in-many-forms-chords.htm
Привет, Гость.
Предлагаем пройти революционный курс по гитаре.
Подарок от PrimaNota.Ru, забирай!