PrimaNota.ru - самый крупный в мире бесплатный архив песенных текстов, аккордов, табулатур и нот


House Vs Hurricane - Furious George - таба, видео

Регистрация Запомнить меня
Войти через:  Facebook Google Twitter Vk Yandex Mail.ru

House Vs Hurricane - Furious George - таба, видео

Печатать
Просмотров: 96
-------------------------------------------------------------------------------
                                       Furious George - House vs Hurricane
-------------------------------------------------------------------------------
Tabbed by: JonoFtw
Email: Jonathan_kotyla@hotmail.com

Tuning: Drop C

If you figure out anything or have some corrections please do comment.
Hope you enjoy it, i think there needs to be more HvH tabs so i decided to make another.

e|------------------------------------------|
B|-66666-666666-6-6-666666-666666-6-6-6-6---| x2
G|-99999-999999-9-9-999999-999999-9-9-9-9---|
D|------------------------------------------|
A|------------------------------------------|
E|------------------------------------------|

        Definitely not sure bout this one
                   V
e|----------------------------------------------------------|
B|-------88--------5---------------------88-----------------|
G|-------99--------4---------------------99----5555-5/7-77--|
D|-7-777-77--3-333----00-000-000--7-777--77----3333-3/5-55--|
A|-7-777-----3-333----00-000-000--7-777--------3333-3/5-55--|
E|-7-777-----3-333----00-000-000--7-777--------3333-3/5-55--|
     ***       ***    ** *** ***    ***        **** * * *


e|------------------------------------------------------------------------|
B|------------------------------------------------------------------------| 
G|------------------------------------------------------------------------|
D|-000000--000-00-0-00-000-0-0-000-000-000000-000-00-0-00-000-0-0-000-000-|
A|-000000--000-00-0-00-000-0-0-000-000-000000-000-00-0-00-000-0-0-000-000-|
E|-000000--000-00-0-00-000-0-0-000-000-000000-000-00-0-00-000-0-0-000-000-|
   ******  *** ** * ** *** * * *** *** ****** *** ** * ** *** * * *** ***


e|------------------------------------------------------------------------|
B|------------------------------------------------------------------------|
G|------------------------------------------------------------------------|
D|-000000--000-00-0-00-000-0-0-000-000-888888-888-88-8-88-888-8-8-888-888-|
A|-000000--000-00-0-00-000-0-0-000-000-888888-888-88-8-88-888-8-8-888-888-|
E|-000000--000-00-0-00-000-0-0-000-000-888888-888-88-8-88-888-8-8-888-888-|
   ******  *** ** * ** *** * * *** *** ****** *** ** * ** *** * * *** ***


e|-------------------------------------------------------------------------|
B|--------666666666666--------666666666666---------------------------------| x2
G|--------999999999999--------999999999999---------------------------------|
D|-000-30--------------000-30---------------33-333-333-333-355-555-555-555-|
A|-000-30--------------000-30---------------33-333-333-333-355-555-555-555-|
E|-000-30--------------000-30---------------33-333-333-333-355-555-555-555-|
   ***                 ***


e|------------------------------------------------------------------|
B|-----6-6/7-------6-6/7-------10--------6-6/7-------6-6/7----------| x4
G|-----9-9/10------9-9/10------13--------9-9/10------9-9/10---------|
D|-000---------000---------000-------000---------000--------000-000-|
A|-000---------000---------000-------000---------000--------000-000-|
E|-000---------000---------000-------000---------000--------000-000-|
   ***         ***         ***       ***         ***        *** ***

       1:48 - 1:53
e|--------------------------------------------------------------|
B|--------------------------------------------------------------|
G|--------------------------------------------------------------|These are 
D|-----------------------------------------------------10101010-|twelves and 
A|-121212121212121212121212121212121010101010101010101010101010-|tens by the
E|-121212121212121212121212121212121010101010101010101010101010-|way
   * * * * * * * * * * * * * * * * * * * * * * * * * * 


e|---------------------------------|
B|---------------------------------|x3
G|-7-x16--10-x16--14-x16--12-x16---|
D|-5------8-------12------10-------|
A|-5------8-------12------10-------|
E|-5------8-------12------10-------|

Synth bit
And then 2:55 - 2:57 im not sure you can just do the opens 
and just after that it goes

                       Could also be 7 not sure
                                     10
                  V                    V                      V
e|--------------------------------------------------------------------|
B|---------------666------------------666--------------------666------|
G|-5---5---------999-----------5/7----999-----------5/7------999-<9>--|
D|-x-0-x-0-----0-------000-000-x-x--0-------000-000-x-x--0------------|
A|-3-0-3-0-----0-------000-000-3/5--0-------000-000-3/5--0------------|
E|---0---0-----0-------000-000------0-------000-000------0------------|
     *   *     *       *** ***      *       *** ***      *


e|---------------------------|
B|----------------666--------|
G|---------5/7----999--------|
D|-000-000-X-X--0------------|
A|-000-000-3/5--0------------|
E|-000-000------0------------|
   *** ***      *

e|----------------------------------|
B|-6-x16--6-x16--6-x16--8-x8--16-x8-| x2
G|-9------7------9------9-----19----|
D|----------------------------------|
A|----------------------------------|
E|----------------------------------|


e|---------------------------------------------------------|
B|---------------------------------------------------------|
G|---------------------------------------------------------|
D|-00000000-0-0-0-00-00-0-0-0---00000000-0-0-0-0000--------|
A|-00000000-0-0-0-00-00-0-0-0---00000000-0-0-0-0000--------|
E|-00000000-0-0-0-00-00-0-0-0---00000000-0-0-0-0000--------|
   ******** * * * ** ** * * *   ******** * * * **** 


e|------------------------------------------------------------------|
B|-------------------------------------7--7\------------------------|
G|-------------------------------------10-10\-----------------------|
D|-00000000-0-0-0-00-000-0-0--00000000------------------------------|
A|-00000000-0-0-0-00-000-0-0--00000000-------0-0-0-5h8p5h8p4h7p4h7--|
E|-00000000-0-0-0-00-000-0-0--00000000-------0-0-0------------------|
   ******** * * * ** *** * *  ********       * * *


e|-----------------------------------------------------|
B|----------------------------------------------6-6-6--|
G|----------------------------------------------9-9-9--|
D|-00000000-0-0-0-00-000-0-0-000000-0-0-0-000-0--------|
A|-00000000-0-0-0-00-000-0-0-000000-0-0-0-000-0--------|
E|-00000000-0-0-0-00-000-0-0-000000-0-0-0-000-0--------|
   ******** * * * ** *** * * ****** * * * *** *





************************************

| /   slide up
| \   slide down
| h   hammer-on
| p   pull-off
| ~   vibrato
| +   harmonic
| x   Mute note
| b   Bend
| pb  Pre-bend
| br  Bend release
| pbr Pre-bend release
| brb Bend release bend
| *   Palm mute
| <>  Pinch Harmonic

************************************
Добавлено: 30.06.2012
Другие материалы по этой песне:

Страница создана 30.06.2012
http://primanota.ru/house-vs-hurricane/furious-george-chords.htm
Привет, Гость.
Предлагаем пройти революционный курс по гитаре.
Подарок от PrimaNota.Ru, забирай!